  0
SECTION
  2
HEADER
  9
$ACADVER
  1
AC1015
  9
$ACADMAINTVER
 70
     6
  9
$DWGCODEPAGE
  3
ANSI_1254
  9
$INSBASE
 10
0.0
 20
0.0
 30
0.0
  9
$EXTMIN
 10
0.0
 20
0.0
 30
0.0
  9
$EXTMAX
 10
279.4
 20
215.9
 30
0.0
  9
$LIMMIN
 10
0.0
 20
0.0
  9
$LIMMAX
 10
279.4
 20
215.9
  9
$ORTHOMODE
 70
     0
  9
$REGENMODE
 70
     1
  9
$FILLMODE
 70
     1
  9
$QTEXTMODE
 70
     0
  9
$MIRRTEXT
 70
     1
  9
$LTSCALE
 40
1.0
  9
$ATTMODE
 70
     1
  9
$TEXTSIZE
 40
3.5
  9
$TRACEWID
 40
1.0
  9
$TEXTSTYLE
  7
Standard
  9
$CLAYER
  8
0
  9
$CELTYPE
  6
ByLayer
  9
$CECOLOR
 62
   256
  9
$CELTSCALE
 40
1.0
  9
$DISPSILH
 70
     0
  9
$DIMSCALE
 40
1.0
  9
$DIMASZ
 40
3.5
  9
$DIMEXO
 40
1.0
  9
$DIMDLI
 40
3.75
  9
$DIMRND
 40
0.0
  9
$DIMDLE
 40
0.0
  9
$DIMEXE
 40
1.0
  9
$DIMTP
 40
0.0
  9
$DIMTM
 40
0.0
  9
$DIMTXT
 40
3.5
  9
$DIMCEN
 40
2.5
  9
$DIMTSZ
 40
0.0
  9
$DIMTOL
 70
     0
  9
$DIMLIM
 70
     0
  9
$DIMTIH
 70
     1
  9
$DIMTOH
 70
     1
  9
$DIMSE1
 70
     0
  9
$DIMSE2
 70
     0
  9
$DIMTAD
 70
     1
  9
$DIMZIN
 70
     0
  9
$DIMBLK
  1

  9
$DIMASO
 70
     1
  9
$DIMSHO
 70
     1
  9
$DIMPOST
  1

  9
$DIMAPOST
  1

  9
$DIMALT
 70
     0
  9
$DIMALTD
 70
     3
  9
$DIMALTF
 40
0.0393700787
  9
$DIMLFAC
 40
1.0
  9
$DIMTOFL
 70
     1
  9
$DIMTVP
 40
0.0
  9
$DIMTIX
 70
     0
  9
$DIMSOXD
 70
     0
  9
$DIMSAH
 70
     0
  9
$DIMBLK1
  1

  9
$DIMBLK2
  1

  9
$DIMSTYLE
  2
ISO-25
  9
$DIMCLRD
 70
     0
  9
$DIMCLRE
 70
     0
  9
$DIMCLRT
 70
     0
  9
$DIMTFAC
 40
1.0
  9
$DIMGAP
 40
1.524
  9
$DIMJUST
 70
     0
  9
$DIMSD1
 70
     0
  9
$DIMSD2
 70
     0
  9
$DIMTOLJ
 70
     0
  9
$DIMTZIN
 70
     0
  9
$DIMALTZ
 70
     0
  9
$DIMALTTZ
 70
     0
  9
$DIMUPT
 70
     0
  9
$DIMDEC
 70
     2
  9
$DIMTDEC
 70
     2
  9
$DIMALTU
 70
     2
  9
$DIMALTTD
 70
     3
  9
$DIMTXSTY
  7
Standard
  9
$DIMAUNIT
 70
     0
  9
$DIMADEC
 70
     2
  9
$DIMALTRND
 40
0.0
  9
$DIMAZIN
 70
     0
  9
$DIMDSEP
 70
    44
  9
$DIMATFIT
 70
     3
  9
$DIMFRAC
 70
     0
  9
$DIMLDRBLK
  1

  9
$DIMLUNIT
 70
     2
  9
$DIMLWD
 70
    -2
  9
$DIMLWE
 70
    -2
  9
$DIMTMOVE
 70
     0
  9
$LUNITS
 70
     2
  9
$LUPREC
 70
     2
  9
$SKETCHINC
 40
1.0
  9
$FILLETRAD
 40
10.0
  9
$AUNITS
 70
     0
  9
$AUPREC
 70
     2
  9
$MENU
  1
.
  9
$ELEVATION
 40
0.0
  9
$PELEVATION
 40
0.0
  9
$THICKNESS
 40
0.0
  9
$LIMCHECK
 70
     0
  9
$CHAMFERA
 40
0.0
  9
$CHAMFERB
 40
0.0
  9
$CHAMFERC
 40
0.0
  9
$CHAMFERD
 40
0.0
  9
$SKPOLY
 70
     0
  9
$TDCREATE
 40
2459935.710511736
  9
$TDUCREATE
 40
2459935.585511736
  9
$TDUPDATE
 40
2459935.710511921
  9
$TDUUPDATE
 40
2459935.585511921
  9
$TDINDWG
 40
0.0000000116
  9
$TDUSRTIMER
 40
0.0000000116
  9
$USRTIMER
 70
     1
  9
$ANGBASE
 50
0.0
  9
$ANGDIR
 70
     0
  9
$PDMODE
 70
     0
  9
$PDSIZE
 40
-1.0
  9
$PLINEWID
 40
0.0
  9
$SPLFRAME
 70
     0
  9
$SPLINETYPE
 70
     6
  9
$SPLINESEGS
 70
     8
  9
$HANDSEED
  5
12A
  9
$SURFTAB1
 70
     6
  9
$SURFTAB2
 70
     6
  9
$SURFTYPE
 70
     6
  9
$SURFU
 70
     6
  9
$SURFV
 70
     6
  9
$UCSBASE
  2

  9
$UCSNAME
  2

  9
$UCSORG
 10
0.0
 20
0.0
 30
0.0
  9
$UCSXDIR
 10
1.0
 20
0.0
 30
0.0
  9
$UCSYDIR
 10
0.0
 20
1.0
 30
0.0
  9
$UCSORTHOREF
  2

  9
$UCSORTHOVIEW
 70
     0
  9
$UCSORGTOP
 10
0.0
 20
0.0
 30
0.0
  9
$UCSORGBOTTOM
 10
0.0
 20
0.0
 30
0.0
  9
$UCSORGLEFT
 10
0.0
 20
0.0
 30
0.0
  9
$UCSORGRIGHT
 10
0.0
 20
0.0
 30
0.0
  9
$UCSORGFRONT
 10
0.0
 20
0.0
 30
0.0
  9
$UCSORGBACK
 10
0.0
 20
0.0
 30
0.0
  9
$PUCSBASE
  2

  9
$PUCSNAME
  2

  9
$PUCSORG
 10
0.0
 20
0.0
 30
0.0
  9
$PUCSXDIR
 10
1.0
 20
0.0
 30
0.0
  9
$PUCSYDIR
 10
0.0
 20
1.0
 30
0.0
  9
$PUCSORTHOREF
  2

  9
$PUCSORTHOVIEW
 70
     0
  9
$PUCSORGTOP
 10
0.0
 20
0.0
 30
0.0
  9
$PUCSORGBOTTOM
 10
0.0
 20
0.0
 30
0.0
  9
$PUCSORGLEFT
 10
0.0
 20
0.0
 30
0.0
  9
$PUCSORGRIGHT
 10
0.0
 20
0.0
 30
0.0
  9
$PUCSORGFRONT
 10
0.0
 20
0.0
 30
0.0
  9
$PUCSORGBACK
 10
0.0
 20
0.0
 30
0.0
  9
$USERI1
 70
     0
  9
$USERI2
 70
     0
  9
$USERI3
 70
     0
  9
$USERI4
 70
     0
  9
$USERI5
 70
     0
  9
$USERR1
 40
0.0
  9
$USERR2
 40
0.0
  9
$USERR3
 40
0.0
  9
$USERR4
 40
0.0
  9
$USERR5
 40
0.0
  9
$WORLDVIEW
 70
     1
  9
$SHADEDGE
 70
     3
  9
$SHADEDIF
 70
    70
  9
$TILEMODE
 70
     1
  9
$MAXACTVP
 70
    64
  9
$PINSBASE
 10
0.0
 20
0.0
 30
0.0
  9
$PLIMCHECK
 70
     0
  9
$PEXTMIN
 10
1.0000000000E+20
 20
1.0000000000E+20
 30
1.0000000000E+20
  9
$PEXTMAX
 10
-1.0000000000E+20
 20
-1.0000000000E+20
 30
-1.0000000000E+20
  9
$PLIMMIN
 10
0.0
 20
0.0
  9
$PLIMMAX
 10
420.0
 20
297.0
  9
$UNITMODE
 70
     0
  9
$VISRETAIN
 70
     1
  9
$PLINEGEN
 70
     0
  9
$PSLTSCALE
 70
     1
  9
$TREEDEPTH
 70
  3020
  9
$CMLSTYLE
  2
Standard
  9
$CMLJUST
 70
     0
  9
$CMLSCALE
 40
20.0
  9
$PROXYGRAPHICS
 70
     1
  9
$MEASUREMENT
 70
     1
  9
$CELWEIGHT
370
    -1
  9
$ENDCAPS
280
     0
  9
$JOINSTYLE
280
     0
  9
$LWDISPLAY
290
     1
  9
$INSUNITS
 70
     4
  9
$HYPERLINKBASE
  1

  9
$STYLESHEET
  1

  9
$XEDIT
290
     1
  9
$CEPSNTYPE
380
     0
  9
$PSTYLEMODE
290
     1
  9
$FINGERPRINTGUID
  2
{1aa32ac7-b84e-4f54-be80-fdbfff091c53}
  9
$VERSIONGUID
  2
{FAEB1C32-E019-11D5-929B-00C0DF256EC4}
  9
$EXTNAMES
290
     1
  9
$PSVPSCALE
 40
0.0
  9
$OLESTARTUP
290
     0
  0
ENDSEC
  0
SECTION
  2
CLASSES
  0
CLASS
  1
ACDBDICTIONARYWDFLT
  2
AcDbDictionaryWithDefault
  3
ObjectDBX Classes
 90
        0
280
     0
281
     0
  0
CLASS
  1
VISUALSTYLE
  2
AcDbVisualStyle
  3
ObjectDBX Classes
 90
     4095
280
     0
281
     0
  0
CLASS
  1
MATERIAL
  2
AcDbMaterial
  3
ObjectDBX Classes
 90
     1153
280
     0
281
     0
  0
CLASS
  1
SCALE
  2
AcDbScale
  3
ObjectDBX Classes
 90
     1153
280
     0
281
     0
  0
CLASS
  1
TABLESTYLE
  2
AcDbTableStyle
  3
ObjectDBX Classes
 90
     4095
280
     0
281
     0
  0
CLASS
  1
MLEADERSTYLE
  2
AcDbMLeaderStyle
  3
ACDB_MLEADERSTYLE_CLASS
 90
     4095
280
     0
281
     0
  0
CLASS
  1
SUN
  2
AcDbSun
  3
SCENEOE
 90
     1153
280
     0
281
     0
  0
CLASS
  1
ACDBPLACEHOLDER
  2
AcDbPlaceHolder
  3
ObjectDBX Classes
 90
        0
280
     0
281
     0
  0
CLASS
  1
LAYOUT
  2
AcDbLayout
  3
ObjectDBX Classes
 90
        0
280
     0
281
     0
  0
ENDSEC
  0
SECTION
  2
TABLES
  0
TABLE
  2
VPORT
  5
8
330
0
100
AcDbSymbolTable
 70
     1
  0
VPORT
  5
29
330
8
100
AcDbSymbolTableRecord
100
AcDbViewportTableRecord
  2
*Active
 70
     0
 10
0.0
 20
0.0
 11
1.0
 21
1.0
 12
139.7
 22
107.95
 13
0.0
 23
0.0
 14
10.0
 24
10.0
 15
10.0
 25
10.0
 16
0.0
 26
0.0
 36
1.0
 17
0.0
 27
0.0
 37
0.0
 40
215.9
 41
1.2941176471
 42
50.0
 43
0.0
 44
0.0
 50
0.0
 51
0.0
 71
     0
 72
  2000
 73
     1
 74
     3
 75
     0
 76
     0
 77
     0
 78
     0
281
     0
 65
     1
110
0.0
120
0.0
130
0.0
111
1.0
121
0.0
131
0.0
112
0.0
122
1.0
132
0.0
 79
     0
146
0.0
  0
ENDTAB
  0
TABLE
  2
LTYPE
  5
5
330
0
100
AcDbSymbolTable
 70
     6
  0
LTYPE
  5
14
330
5
100
AcDbSymbolTableRecord
100
AcDbLinetypeTableRecord
  2
ByBlock
 70
     0
  3

 72
    65
 73
     0
 40
0.0
  0
LTYPE
  5
15
330
5
100
AcDbSymbolTableRecord
100
AcDbLinetypeTableRecord
  2
ByLayer
 70
     0
  3

 72
    65
 73
     0
 40
0.0
  0
LTYPE
  5
16
330
5
100
AcDbSymbolTableRecord
100
AcDbLinetypeTableRecord
  2
Continuous
 70
     0
  3
Solid line
 72
    65
 73
     0
 40
0.0
  0
LTYPE
  5
6E
330
5
100
AcDbSymbolTableRecord
100
AcDbLinetypeTableRecord
  2
HIDDEN
 70
     0
  3
Hidden __ __ __ __ __ __ __ __ __ __ __ __ __ __
 72
    65
 73
     2
 40
1.905
 49
1.27
 74
     0
 49
-0.635
 74
     0
  0
LTYPE
  5
6F
330
5
100
AcDbSymbolTableRecord
100
AcDbLinetypeTableRecord
  2
PHANTOM
 70
     0
  3
Phantom ______  __  __  ______  __  __  ______
 72
    65
 73
     6
 40
12.7
 49
6.35
 74
     0
 49
-1.27
 74
     0
 49
1.27
 74
     0
 49
-1.27
 74
     0
 49
1.27
 74
     0
 49
-1.27
 74
     0
  0
LTYPE
  5
70
330
5
100
AcDbSymbolTableRecord
100
AcDbLinetypeTableRecord
  2
CENTER
 70
     0
  3
Center ____ _ ____ _ ____ _ ____ _ ____ _ ____
 72
    65
 73
     4
 40
10.16
 49
6.35
 74
     0
 49
-1.27
 74
     0
 49
1.27
 74
     0
 49
-1.27
 74
     0
  0
LTYPE
  5
71
330
5
100
AcDbSymbolTableRecord
100
AcDbLinetypeTableRecord
  2
CENTERX2
 70
     0
  3
Center (2x) ________  __  ________  __  _____
 72
    65
 73
     4
 40
20.32
 49
12.7
 74
     0
 49
-2.54
 74
     0
 49
2.54
 74
     0
 49
-2.54
 74
     0
  0
LTYPE
  5
72
330
5
100
AcDbSymbolTableRecord
100
AcDbLinetypeTableRecord
  2
DOT2
 70
     0
  3
Dot (.5x) ........................................
 72
    65
 73
     2
 40
0.635
 49
0.0
 74
     0
 49
-0.635
 74
     0
  0
ENDTAB
  0
TABLE
  2
LAYER
  5
2
330
0
100
AcDbSymbolTable
 70
    17
  0
LAYER
  5
10
330
2
100
AcDbSymbolTableRecord
100
AcDbLayerTableRecord
  2
0
 70
     0
 62
     7
  6
Continuous
370
    -3
390
F
  0
LAYER
  5
73
330
2
100
AcDbSymbolTableRecord
100
AcDbLayerTableRecord
  2
FORMAT
 70
     0
 62
     7
  6
Continuous
370
    -3
390
F
  0
LAYER
  5
74
330
2
100
AcDbSymbolTableRecord
100
AcDbLayerTableRecord
  2
YARDIMCI_GEOMETRI
 70
     0
 62
    -6
  6
Continuous
290
     0
370
    -3
390
F
  0
LAYER
  5
75
330
2
100
AcDbSymbolTableRecord
100
AcDbLayerTableRecord
  2
SAYFA_CERCEVESI
 70
     0
 62
     7
  6
Continuous
370
    25
390
F
  0
LAYER
  5
76
330
2
100
AcDbSymbolTableRecord
100
AcDbLayerTableRecord
  2
ANTET
 70
     0
 62
     7
  6
Continuous
370
    -3
390
F
  0
LAYER
  5
77
330
2
100
AcDbSymbolTableRecord
100
AcDbLayerTableRecord
  2
OLCU
 70
     0
 62
   150
  6
Continuous
370
    -3
390
F
  0
LAYER
  5
78
330
2
100
AcDbSymbolTableRecord
100
AcDbLayerTableRecord
  2
METIN
 70
     0
 62
    96
  6
Continuous
370
    -3
390
F
  0
LAYER
  5
79
330
2
100
AcDbSymbolTableRecord
100
AcDbLayerTableRecord
  2
BALON
 70
     0
 62
     5
  6
Continuous
370
    -3
390
F
  0
LAYER
  5
7A
330
2
100
AcDbSymbolTableRecord
100
AcDbLayerTableRecord
  2
VURGU
 70
     0
 62
     7
  6
Continuous
370
    -3
390
F
  0
LAYER
  5
7B
330
2
100
AcDbSymbolTableRecord
100
AcDbLayerTableRecord
  2
SILIK
 70
     0
 62
     7
  6
Continuous
370
    -3
390
F
  0
LAYER
  5
7C
330
2
100
AcDbSymbolTableRecord
100
AcDbLayerTableRecord
  2
MODEL
 70
     0
 62
     7
  6
Continuous
370
    -3
390
F
  0
LAYER
  5
7D
330
2
100
AcDbSymbolTableRecord
100
AcDbLayerTableRecord
  2
DETAYLANDıRMA
 70
     0
 62
   190
  6
Continuous
370
    -3
390
F
  0
LAYER
  5
7E
330
2
100
AcDbSymbolTableRecord
100
AcDbLayerTableRecord
  2
TOLERANS
 70
     0
 62
   230
  6
Continuous
370
    -3
390
F
  0
LAYER
  5
7F
330
2
100
AcDbSymbolTableRecord
100
AcDbLayerTableRecord
  2
MERKEZ_CIZGILERI
 70
     0
 62
    30
  6
Continuous
370
    -3
390
F
  0
LAYER
  5
80
330
2
100
AcDbSymbolTableRecord
100
AcDbLayerTableRecord
  2
KESIT-DETAY_CIZGILERI
 70
     0
 62
     7
  6
Continuous
370
    -3
390
F
  0
LAYER
  5
81
330
2
100
AcDbSymbolTableRecord
100
AcDbLayerTableRecord
  2
\U+041E\U+0421\U+0415\U+0412\U+042B\U+0415
 70
     0
 62
     7
  6
Continuous
370
    -3
390
F
  0
LAYER
  5
82
330
2
100
AcDbSymbolTableRecord
100
AcDbLayerTableRecord
  2
\U+0412\U+041E\U+0414\U+042F\U+041D\U+042B\U+0415_\U+0417\U+041D\U+0410\U+041A\U+0418
 70
     0
 62
    11
  6
Continuous
370
    -3
390
F
  0
ENDTAB
  0
TABLE
  2
STYLE
  5
3
330
0
100
AcDbSymbolTable
 70
     1
  0
STYLE
  5
11
330
3
100
AcDbSymbolTableRecord
100
AcDbTextStyleTableRecord
  2
Standard
 70
     0
 40
0.0
 41
1.0
 50
0.0
 71
     0
 42
3.5
  3
txt
  4

  0
ENDTAB
  0
TABLE
  2
VIEW
  5
6
330
0
100
AcDbSymbolTable
 70
     0
  0
ENDTAB
  0
TABLE
  2
UCS
  5
7
330
0
100
AcDbSymbolTable
 70
     0
  0
ENDTAB
  0
TABLE
  2
APPID
  5
9
330
0
100
AcDbSymbolTable
 70
     1
  0
APPID
  5
12
330
9
100
AcDbSymbolTableRecord
100
AcDbRegAppTableRecord
  2
ACAD
 70
     0
  0
ENDTAB
  0
TABLE
  2
DIMSTYLE
  5
A
330
0
100
AcDbSymbolTable
 70
     1
100
AcDbDimStyleTable
  0
DIMSTYLE
105
27
330
A
100
AcDbSymbolTableRecord
100
AcDbDimStyleTableRecord
  2
ISO-25
 70
     0
 41
2.5
 42
0.625
 43
3.75
 44
1.25
 73
     0
 74
     0
 77
     1
 78
     8
140
2.5
141
2.5
143
0.0393700787
147
0.625
171
     3
172
     1
178
     0
271
     2
272
     2
274
     3
278
    44
283
     0
284
     8
340
11
  0
ENDTAB
  0
TABLE
  2
BLOCK_RECORD
  5
1
330
0
100
AcDbSymbolTable
 70
     4
  0
BLOCK_RECORD
  5
1F
330
1
100
AcDbSymbolTableRecord
100
AcDbBlockTableRecord
  2
*Model_Space
340
22
  0
BLOCK_RECORD
  5
1B
330
1
100
AcDbSymbolTableRecord
100
AcDbBlockTableRecord
  2
*Paper_Space
340
1E
  0
BLOCK_RECORD
  5
23
330
1
100
AcDbSymbolTableRecord
100
AcDbBlockTableRecord
  2
*Paper_Space0
340
26
  0
BLOCK_RECORD
  5
93
330
1
100
AcDbSymbolTableRecord
100
AcDbBlockTableRecord
  2
SW_CENTERMARKSYMBOL_0
340
0
102
{BLKREFS
331
9E
102
}
  0
BLOCK_RECORD
  5
E9
330
1
100
AcDbSymbolTableRecord
100
AcDbBlockTableRecord
  2
SW_CENTERMARKSYMBOL_1
340
0
102
{BLKREFS
331
F4
102
}
  0
BLOCK_RECORD
  5
F5
330
1
100
AcDbSymbolTableRecord
100
AcDbBlockTableRecord
  2
SW_CENTERMARKSYMBOL_2
340
0
102
{BLKREFS
331
100
102
}
  0
ENDTAB
  0
ENDSEC
  0
SECTION
  2
BLOCKS
  0
BLOCK
  5
20
330
1F
100
AcDbEntity
  8
0
100
AcDbBlockBegin
  2
*Model_Space
 70
     0
 10
0.0
 20
0.0
 30
0.0
  3
*Model_Space
  1

  0
ENDBLK
  5
21
330
1F
100
AcDbEntity
  8
0
100
AcDbBlockEnd
  0
BLOCK
  5
1C
330
1B
100
AcDbEntity
 67
     1
  8
0
100
AcDbBlockBegin
  2
*Paper_Space
 70
     0
 10
0.0
 20
0.0
 30
0.0
  3
*Paper_Space
  1

  0
ENDBLK
  5
1D
330
1B
100
AcDbEntity
 67
     1
  8
0
100
AcDbBlockEnd
  0
BLOCK
  5
24
330
23
100
AcDbEntity
  8
0
100
AcDbBlockBegin
  2
*Paper_Space0
 70
     0
 10
0.0
 20
0.0
 30
0.0
  3
*Paper_Space0
  1

  0
ENDBLK
  5
25
330
23
100
AcDbEntity
  8
0
100
AcDbBlockEnd
  0
BLOCK
  5
94
330
93
100
AcDbEntity
  8
0
100
AcDbBlockBegin
  2
SW_CENTERMARKSYMBOL_0
 70
     0
 10
0.0
 20
0.0
 30
0.0
  3
SW_CENTERMARKSYMBOL_0
  1

  0
LINE
  5
96
330
93
100
AcDbEntity
  8
FORMAT
 62
     0
100
AcDbLine
 10
0.0
 20
0.0
 30
0.0
 11
0.0
 21
2.5
 31
0.0
  0
LINE
  5
97
330
93
100
AcDbEntity
  8
FORMAT
 62
     0
100
AcDbLine
 10
0.0
 20
0.0
 30
0.0
 11
-2.5
 21
0.0
 31
0.0
  0
LINE
  5
98
330
93
100
AcDbEntity
  8
FORMAT
 62
     0
100
AcDbLine
 10
0.0
 20
0.0
 30
0.0
 11
0.0
 21
-2.5
 31
0.0
  0
LINE
  5
99
330
93
100
AcDbEntity
  8
FORMAT
 62
     0
100
AcDbLine
 10
0.0
 20
0.0
 30
0.0
 11
2.5
 21
0.0
 31
0.0
  0
LINE
  5
9A
330
93
100
AcDbEntity
  8
FORMAT
 62
     0
100
AcDbLine
 10
0.0
 20
5.0
 30
0.0
 11
0.0
 21
357.5
 31
0.0
  0
LINE
  5
9B
330
93
100
AcDbEntity
  8
FORMAT
 62
     0
100
AcDbLine
 10
-5.0
 20
0.0
 30
0.0
 11
-357.5
 21
0.0
 31
0.0
  0
LINE
  5
9C
330
93
100
AcDbEntity
  8
FORMAT
 62
     0
100
AcDbLine
 10
0.0
 20
-5.0
 30
0.0
 11
0.0
 21
-357.5
 31
0.0
  0
LINE
  5
9D
330
93
100
AcDbEntity
  8
FORMAT
 62
     0
100
AcDbLine
 10
5.0
 20
0.0
 30
0.0
 11
357.5
 21
0.0
 31
0.0
  0
ENDBLK
  5
95
330
93
100
AcDbEntity
  8
0
100
AcDbBlockEnd
  0
BLOCK
  5
EA
330
E9
100
AcDbEntity
  8
0
100
AcDbBlockBegin
  2
SW_CENTERMARKSYMBOL_1
 70
     0
 10
0.0
 20
0.0
 30
0.0
  3
SW_CENTERMARKSYMBOL_1
  1

  0
LINE
  5
EC
330
E9
100
AcDbEntity
  8
FORMAT
 62
     0
100
AcDbLine
 10
0.0
 20
0.0
 30
0.0
 11
0.0
 21
2.5
 31
0.0
  0
LINE
  5
ED
330
E9
100
AcDbEntity
  8
FORMAT
 62
     0
100
AcDbLine
 10
0.0
 20
0.0
 30
0.0
 11
-2.5
 21
0.0
 31
0.0
  0
LINE
  5
EE
330
E9
100
AcDbEntity
  8
FORMAT
 62
     0
100
AcDbLine
 10
0.0
 20
0.0
 30
0.0
 11
0.0
 21
-2.5
 31
0.0
  0
LINE
  5
EF
330
E9
100
AcDbEntity
  8
FORMAT
 62
     0
100
AcDbLine
 10
0.0
 20
0.0
 30
0.0
 11
2.5
 21
0.0
 31
0.0
  0
LINE
  5
F0
330
E9
100
AcDbEntity
  8
FORMAT
 62
     0
100
AcDbLine
 10
0.0
 20
5.0
 30
0.0
 11
0.0
 21
9.5
 31
0.0
  0
LINE
  5
F1
330
E9
100
AcDbEntity
  8
FORMAT
 62
     0
100
AcDbLine
 10
-5.0
 20
0.0
 30
0.0
 11
-9.5
 21
0.0
 31
0.0
  0
LINE
  5
F2
330
E9
100
AcDbEntity
  8
FORMAT
 62
     0
100
AcDbLine
 10
0.0
 20
-5.0
 30
0.0
 11
0.0
 21
-9.5
 31
0.0
  0
LINE
  5
F3
330
E9
100
AcDbEntity
  8
FORMAT
 62
     0
100
AcDbLine
 10
5.0
 20
0.0
 30
0.0
 11
9.5
 21
0.0
 31
0.0
  0
ENDBLK
  5
EB
330
E9
100
AcDbEntity
  8
0
100
AcDbBlockEnd
  0
BLOCK
  5
F6
330
F5
100
AcDbEntity
  8
0
100
AcDbBlockBegin
  2
SW_CENTERMARKSYMBOL_2
 70
     0
 10
0.0
 20
0.0
 30
0.0
  3
SW_CENTERMARKSYMBOL_2
  1

  0
LINE
  5
F8
330
F5
100
AcDbEntity
  8
FORMAT
 62
     0
100
AcDbLine
 10
0.0
 20
0.0
 30
0.0
 11
0.0
 21
2.5
 31
0.0
  0
LINE
  5
F9
330
F5
100
AcDbEntity
  8
FORMAT
 62
     0
100
AcDbLine
 10
0.0
 20
0.0
 30
0.0
 11
-2.5
 21
0.0
 31
0.0
  0
LINE
  5
FA
330
F5
100
AcDbEntity
  8
FORMAT
 62
     0
100
AcDbLine
 10
0.0
 20
0.0
 30
0.0
 11
0.0
 21
-2.5
 31
0.0
  0
LINE
  5
FB
330
F5
100
AcDbEntity
  8
FORMAT
 62
     0
100
AcDbLine
 10
0.0
 20
0.0
 30
0.0
 11
2.5
 21
0.0
 31
0.0
  0
LINE
  5
FC
330
F5
100
AcDbEntity
  8
FORMAT
 62
     0
100
AcDbLine
 10
0.0
 20
5.0
 30
0.0
 11
0.0
 21
9.5
 31
0.0
  0
LINE
  5
FD
330
F5
100
AcDbEntity
  8
FORMAT
 62
     0
100
AcDbLine
 10
-5.0
 20
0.0
 30
0.0
 11
-9.5
 21
0.0
 31
0.0
  0
LINE
  5
FE
330
F5
100
AcDbEntity
  8
FORMAT
 62
     0
100
AcDbLine
 10
0.0
 20
-5.0
 30
0.0
 11
0.0
 21
-9.5
 31
0.0
  0
LINE
  5
FF
330
F5
100
AcDbEntity
  8
FORMAT
 62
     0
100
AcDbLine
 10
5.0
 20
0.0
 30
0.0
 11
9.5
 21
0.0
 31
0.0
  0
ENDBLK
  5
F7
330
F5
100
AcDbEntity
  8
0
100
AcDbBlockEnd
  0
ENDSEC
  0
SECTION
  2
ENTITIES
  0
LINE
  5
83
330
1F
100
AcDbEntity
  8
0
  6
Continuous
 62
     7
370
    25
100
AcDbLine
 10
107.5036119927
 20
564.4831992229
 30
0.0
 11
107.5036119927
 21
570.2740758024
 31
0.0
  0
LINE
  5
84
330
1F
100
AcDbEntity
  8
0
  6
Continuous
 62
     7
370
    25
100
AcDbLine
 10
93.5036119927
 20
570.2740758024
 30
0.0
 11
93.5036119927
 21
563.3786019677
 31
0.0
  0
LINE
  5
85
330
1F
100
AcDbEntity
  8
0
  6
Continuous
 62
     7
370
    25
100
AcDbLine
 10
177.5036119927
 20
563.3783733334
 30
0.0
 11
177.5036119927
 21
570.2740758024
 31
0.0
  0
LINE
  5
86
330
1F
100
AcDbEntity
  8
0
  6
Continuous
 62
     7
370
    25
100
AcDbLine
 10
163.5036119927
 20
570.2740758024
 30
0.0
 11
163.5036119927
 21
564.4840831358
 31
0.0
  0
CIRCLE
  5
87
330
1F
100
AcDbEntity
  8
0
  6
Continuous
 62
     7
370
    25
100
AcDbCircle
 10
135.5036119927
 20
125.2740758024
 30
0.0
 40
440.0
  0
ARC
  5
88
330
1F
100
AcDbEntity
  8
0
  6
Continuous
 62
     7
370
    25
100
AcDbCircle
 10
135.5036119927
 20
125.2740758024
 30
0.0
 40
440.999999999999
100
AcDbArc
 50
95.4650237999
 51
180.0
  0
ARC
  5
89
330
1F
100
AcDbEntity
  8
0
  6
Continuous
 62
     7
370
    25
100
AcDbCircle
 10
135.5036119927
 20
125.2740758024
 30
0.0
 40
440.999999999999
100
AcDbArc
 50
86.3597241244
 51
93.6402758756
  0
ARC
  5
8A
330
1F
100
AcDbEntity
  8
0
  6
Continuous
 62
     7
370
    25
100
AcDbCircle
 10
135.5036119927
 20
125.2740758024
 30
0.0
 40
440.999999999999
100
AcDbArc
 50
180.0
 51
84.5349762001
  0
SPLINE
  5
8B
330
1F
100
AcDbEntity
  8
0
  6
Continuous
 62
     7
370
    25
100
AcDbSpline
210
0.0
220
0.0
230
1.0
 70
     8
 71
     3
 72
    15
 73
    11
 74
     0
 42
0.00000001
 43
0.00000001
 40
0.0
 40
0.0
 40
0.0
 40
0.0
 40
0.132418496808354
 40
0.2648275176308252
 40
0.3974694988910086
 40
0.5303708562643937
 40
0.6633205296912067
 40
0.7960056869425971
 40
0.9281849583411179
 40
0.9999999999999999
 40
0.9999999999999999
 40
0.9999999999999999
 40
0.9999999999999999
 10
106.3082914750079
 20
564.3751647075507
 30
0.0
 10
105.8035839473182
 20
564.3359709586643
 30
0.0
 10
104.7942050092601
 20
564.257586265632
 30
0.0
 10
102.6215782575877
 20
564.0915010477715
 30
0.0
 10
100.2551958620591
 20
563.9050681490013
 30
0.0
 10
97.9039064093897
 20
563.7137892979115
 30
0.0
 10
95.83859797788598
 20
563.5418245396282
 30
0.0
 10
94.34029902955196
 20
563.4189592756654
 30
0.0
 10
93.54272114970159
 20
563.3591005191734
 30
0.0
 10
93.58619371125654
 20
563.3735241945171
 30
0.0
 10
93.60149798014666
 20
563.3786019676676
 30
0.0
  0
SPLINE
  5
8C
330
1F
100
AcDbEntity
  8
0
  6
Continuous
 62
     7
370
    25
100
AcDbSpline
210
0.0
220
0.0
230
1.0
 70
     8
 71
     3
 72
    10
 73
     6
 74
     0
 42
0.00000001
 43
0.00000001
 40
0.0
 40
0.0
 40
0.0
 40
0.0
 40
0.0792511455344227
 40
0.646390283121887
 40
1.0
 40
1.0
 40
1.0
 40
1.0
 10
107.4561849481105
 20
564.4831992229481
 30
0.0
 10
107.4713653079138
 20
564.4832613745336
 30
0.0
 10
107.5951797588598
 20
564.483768296935
 30
0.0
 10
107.174327413611
 20
564.4452574380355
 30
0.0
 10
106.5485996033025
 20
564.3946140769348
 30
0.0
 10
106.3082914750079
 20
564.3751647075507
 30
0.0
  0
SPLINE
  5
8D
330
1F
100
AcDbEntity
  8
0
  6
Continuous
 62
     7
370
    25
100
AcDbSpline
210
0.0
220
0.0
230
1.0
 70
     8
 71
     3
 72
    15
 73
    11
 74
     0
 42
0.00000001
 43
0.00000001
 40
0.0
 40
0.0
 40
0.0
 40
0.0
 40
0.1409518701608256
 40
0.2818905098355322
 40
0.423115228655332
 40
0.5644168664042494
 40
0.7055133666398617
 40
0.846277880970591
 40
0.986725514731282
 40
1.0
 40
1.0
 40
1.0
 40
1.0
 10
175.6565068682254
 20
563.5019151130924
 30
0.0
 10
175.0655148649261
 20
563.5509155525526
 30
0.0
 10
173.8835863319548
 20
563.6489118320336
 30
0.0
 10
171.5741208038649
 20
563.8389481598922
 30
0.0
 10
169.1819903218731
 20
564.0293782863843
 30
0.0
 10
166.9319546274589
 20
564.2031491534946
 30
0.0
 10
165.0684214686448
 20
564.3450994776362
 30
0.0
 10
163.9031648686974
 20
564.4390324486626
 30
0.0
 10
163.3985551244098
 20
564.4852411163514
 30
0.0
 10
163.5263804180289
 20
564.484175183125
 30
0.0
 10
163.5374186146647
 20
564.4840831357672
 30
0.0
  0
SPLINE
  5
8E
330
1F
100
AcDbEntity
  8
0
  6
Continuous
 62
     7
370
    25
100
AcDbSpline
210
0.0
220
0.0
230
1.0
 70
     8
 71
     3
 72
    10
 73
     6
 74
     0
 42
0.00000001
 43
0.00000001
 40
0.0
 40
0.0
 40
0.0
 40
0.0
 40
0.2686968487903184
 40
0.7197899776814352
 40
1.0
 40
1.0
 40
1.0
 40
1.0
 10
177.4082474390747
 20
563.3783733333509
 30
0.0
 10
177.4180241655836
 20
563.3734884632798
 30
0.0
 10
177.4442142373591
 20
563.3604027849955
 30
0.0
 10
176.7489336883327
 20
563.4128009238123
 30
0.0
 10
175.9591316403536
 20
563.477228643731
 30
0.0
 10
175.6565068682254
 20
563.5019151130924
 30
0.0
  0
CIRCLE
  5
8F
330
1F
100
AcDbEntity
  8
0
  6
Continuous
 62
     7
370
    25
100
AcDbCircle
 10
135.5036119927
 20
125.2740758024
 30
0.0
 40
355.0
  0
LINE
  5
90
330
1F
100
AcDbEntity
  8
0
  6
Continuous
 62
     7
370
    25
100
AcDbLine
 10
100.5036119927
 20
570.2740758024
 30
0.0
 11
93.5036119927
 21
570.2740758024
 31
0.0
  0
LINE
  5
91
330
1F
100
AcDbEntity
  8
0
  6
Continuous
 62
     7
370
    25
100
AcDbLine
 10
107.5036119927
 20
570.2740758024
 30
0.0
 11
100.5036119927
 21
570.2740758024
 31
0.0
  0
LINE
  5
92
330
1F
100
AcDbEntity
  8
0
  6
Continuous
 62
     7
370
    25
100
AcDbLine
 10
177.5036119927
 20
570.2740758024
 30
0.0
 11
163.5036119927
 21
570.2740758024
 31
0.0
  0
INSERT
  5
9E
330
1F
100
AcDbEntity
  8
FORMAT
 62
     7
100
AcDbBlockReference
  2
SW_CENTERMARKSYMBOL_0
 10
135.5036119927
 20
125.2740758024
 30
0.0
  0
ARC
  5
9F
330
1F
100
AcDbEntity
  8
0
  6
Continuous
 62
     7
370
    25
100
AcDbCircle
 10
1178.9071792192
 20
-24746.7259241981
 30
0.0
 40
25313.00000000051
100
AcDbArc
 50
90.0
 51
90.466284552
  0
LINE
  5
A0
330
1F
100
AcDbEntity
  8
0
  6
Continuous
 62
     7
370
    25
100
AcDbLine
 10
958.9071792192
 20
565.3180272497
 30
0.0
 11
953.9071792192
 21
565.2740758024
 31
0.0
  0
ARC
  5
A1
330
1F
100
AcDbEntity
  8
0
  6
Continuous
 62
     7
370
    25
100
AcDbCircle
 10
1178.9071792192
 20
24997.2740758029
 30
0.0
 40
25313.00000000052
100
AcDbArc
 50
269.4907075355
 51
270.0
  0
LINE
  5
A2
330
1F
100
AcDbEntity
  8
0
  6
Continuous
 62
     7
370
    25
100
AcDbLine
 10
1178.9071792192
 20
-315.7259241976
 30
0.0
 11
1203.9071792192
 21
-315.7259241976
 31
0.0
  0
LINE
  5
A3
330
1F
100
AcDbEntity
  8
0
  6
Continuous
 62
     7
370
    25
100
AcDbLine
 10
1203.9071792192
 20
566.2740758024
 30
0.0
 11
1178.9071792192
 21
566.2740758024
 31
0.0
  0
LINE
  5
A4
330
1F
100
AcDbEntity
  8
0
  6
Continuous
 62
     7
370
    25
100
AcDbLine
 10
1428.9071792192
 20
565.2740758024
 30
0.0
 11
1423.9071792192
 21
565.3180272497
 31
0.0
  0
ARC
  5
A5
330
1F
100
AcDbEntity
  8
0
  6
Continuous
 62
     7
370
    25
100
AcDbCircle
 10
1203.9071792192
 20
-24746.7259241981
 30
0.0
 40
25313.00000000051
100
AcDbArc
 50
89.533715448
 51
90.0
  0
ARC
  5
A6
330
1F
100
AcDbEntity
  8
0
  6
Continuous
 62
     7
370
    25
100
AcDbCircle
 10
1203.9071792192
 20
24997.2740758029
 30
0.0
 40
25313.00000000052
100
AcDbArc
 50
270.0
 51
270.5092924645
  0
LINE
  5
A7
330
1F
100
AcDbEntity
  8
0
  6
Continuous
 62
     7
370
    25
100
AcDbLine
 10
972.9071792192
 20
564.0409149291
 30
0.0
 11
972.9071792192
 21
570.2740758024
 31
0.0
  0
LINE
  5
A8
330
1F
100
AcDbEntity
  8
0
  6
Continuous
 62
     7
370
    25
100
AcDbLine
 10
958.9071792192
 20
570.2740758024
 30
0.0
 11
958.9071792192
 21
563.9229115993
 31
0.0
  0
LINE
  5
A9
330
1F
100
AcDbEntity
  8
0
  6
Continuous
 62
     7
370
    25
100
AcDbLine
 10
1423.9071792192
 20
563.9232646389
 30
0.0
 11
1423.9071792192
 21
570.2740758024
 31
0.0
  0
LINE
  5
AA
330
1F
100
AcDbEntity
  8
0
  6
Continuous
 62
     7
370
    25
100
AcDbLine
 10
1409.9071792192
 20
570.2740758024
 30
0.0
 11
1409.9071792192
 21
564.0399904231
 31
0.0
  0
LINE
  5
AB
330
1F
100
AcDbEntity
  8
0
  6
Continuous
 62
     7
370
    25
100
AcDbLine
 10
953.9071792192
 20
125.2740758024
 30
0.0
 11
953.9071792192
 21
565.2740758024
 31
0.0
  0
LINE
  5
AC
330
1F
100
AcDbEntity
  8
0
  6
Continuous
 62
     7
370
    25
100
AcDbLine
 10
953.9071792192
 20
-314.7259241976
 30
0.0
 11
953.9071792192
 21
125.2740758024
 31
0.0
  0
SPLINE
  5
AD
330
1F
100
AcDbEntity
  8
0
  6
Continuous
 62
     7
370
    25
100
AcDbSpline
210
0.0
220
0.0
230
1.0
 70
     8
 71
     3
 72
    18
 73
    14
 74
     0
 42
0.00000001
 43
0.00000001
 40
0.0
 40
0.0
 40
0.0
 40
0.0
 40
0.0101889773325047
 40
0.1179336598745355
 40
0.2258622255594406
 40
0.3337088357724953
 40
0.4411934648307202
 40
0.5482185293363424
 40
0.6549639204478569
 40
0.7617793898174324
 40
0.8689555445323657
 40
0.9765535316552353
 40
0.9999999999999999
 40
0.9999999999999999
 40
0.9999999999999999
 40
0.9999999999999999
 10
972.8732674764218
 20
564.0409149291162
 30
0.0
 10
972.8843383430547
 20
564.0353142169496
 30
0.0
 10
973.0124795467683
 20
563.9704880364455
 30
0.0
 10
972.5064640882287
 20
563.8259878680614
 30
0.0
 10
971.3387514737171
 20
563.6357220819368
 30
0.0
 10
969.472474056708
 20
563.4776272558015
 30
0.0
 10
967.2273642986019
 20
563.3793909710114
 30
0.0
 10
964.8325348482916
 20
563.3552011887579
 30
0.0
 10
962.5702274565119
 20
563.4075470133585
 30
0.0
 10
960.6644817416386
 20
563.5267116860447
 30
0.0
 10
959.4092676965083
 20
563.6925883222416
 30
0.0
 10
958.837614356195
 20
563.8344786616101
 30
0.0
 10
958.9541849556125
 20
563.909490486734
 30
0.0
 10
958.9750417622542
 20
563.9229115992638
 30
0.0
  0
LINE
  5
AE
330
1F
100
AcDbEntity
  8
0
  6
Continuous
 62
     7
370
    25
100
AcDbLine
 10
1428.9071792192
 20
125.2740758024
 30
0.0
 11
1428.9071792192
 21
565.2740758024
 31
0.0
  0
LINE
  5
AF
330
1F
100
AcDbEntity
  8
0
  6
Continuous
 62
     7
370
    25
100
AcDbLine
 10
1428.9071792192
 20
-314.7259241976
 30
0.0
 11
1428.9071792192
 21
125.2740758024
 31
0.0
  0
SPLINE
  5
B0
330
1F
100
AcDbEntity
  8
0
  6
Continuous
 62
     7
370
    25
100
AcDbSpline
210
0.0
220
0.0
230
1.0
 70
     8
 71
     3
 72
    18
 73
    14
 74
     0
 42
0.00000001
 43
0.00000001
 40
0.0
 40
0.0
 40
0.0
 40
0.0
 40
0.0110293669041123
 40
0.1188625250440461
 40
0.2267348857379112
 40
0.3343926239844316
 40
0.4416398978816679
 40
0.548497098702422
 40
0.6552299662956544
 40
0.7621938292799081
 40
0.8696037433226622
 40
0.9774065734406019
 40
1.0
 40
1.0
 40
1.0
 40
1.0
 10
1423.870726288003
 20
563.9232646389406
 30
0.0
 10
1423.882596696847
 20
563.9169965949869
 30
0.0
 10
1424.010523057516
 20
563.8494464320545
 30
0.0
 10
1423.499915260813
 20
563.7129587321383
 30
0.0
 10
1422.324926290753
 20
563.5426181875899
 30
0.0
 10
1420.455753172575
 20
563.4166229426266
 30
0.0
 10
1418.211521715147
 20
563.3569598358148
 30
0.0
 10
1415.819827165726
 20
563.3736961544619
 30
0.0
 10
1413.560245206316
 20
563.4645484306095
 30
0.0
 10
1411.655845506705
 20
563.616189805239
 30
0.0
 10
1410.403718683132
 20
563.8035535505576
 30
0.0
 10
1409.834962085386
 20
563.9548066151493
 30
0.0
 10
1409.952876086512
 20
564.0274105284102
 30
0.0
 10
1409.973306744513
 20
564.03999042314
 30
0.0
  0
LINE
  5
B1
330
1F
100
AcDbEntity
  8
0
  6
Continuous
 62
     7
370
    25
100
AcDbLine
 10
972.9071792192
 20
570.2740758024
 30
0.0
 11
958.9071792192
 21
570.2740758024
 31
0.0
  0
LINE
  5
B2
330
1F
100
AcDbEntity
  8
0
  6
Continuous
 62
     7
370
    25
100
AcDbLine
 10
1423.9071792192
 20
570.2740758024
 30
0.0
 11
1409.9071792192
 21
570.2740758024
 31
0.0
  0
LINE
  5
B3
330
1F
100
AcDbEntity
  8
0
  6
Continuous
 62
     1
370
    25
100
AcDbLine
 10
1178.9071792192
 20
125.2740758024
 30
0.0
 11
1178.9071792192
 21
566.2740758024
 31
0.0
  0
LINE
  5
B4
330
1F
100
AcDbEntity
  8
0
  6
Continuous
 62
     1
370
    25
100
AcDbLine
 10
1178.9071792192
 20
-315.7259241976
 30
0.0
 11
1178.9071792192
 21
125.2740758024
 31
0.0
  0
LINE
  5
B5
330
1F
100
AcDbEntity
  8
0
  6
Continuous
 62
     1
370
    25
100
AcDbLine
 10
1203.9071792192
 20
125.2740758024
 30
0.0
 11
1203.9071792192
 21
566.2740758024
 31
0.0
  0
LINE
  5
B6
330
1F
100
AcDbEntity
  8
0
  6
Continuous
 62
     1
370
    25
100
AcDbLine
 10
1203.9071792192
 20
-315.7259241976
 30
0.0
 11
1203.9071792192
 21
125.2740758024
 31
0.0
  0
ARC
  5
B7
330
1F
100
AcDbEntity
  8
0
  6
Continuous
 62
     7
370
    25
100
AcDbCircle
 10
25007.5036119932
 20
1161.2980795577
 30
0.0
 40
25313.00000000052
100
AcDbArc
 50
180.0
 51
180.5092924645
  0
ARC
  5
B8
330
1F
100
AcDbEntity
  8
0
  6
Continuous
 62
     7
370
    25
100
AcDbCircle
 10
-24736.4963880078
 20
1161.2980795577
 30
0.0
 40
25313.00000000051
100
AcDbArc
 50
359.4907075355
 51
0.0
  0
LINE
  5
B9
330
1F
100
AcDbEntity
  8
0
  6
Continuous
 62
     7
370
    25
100
AcDbLine
 10
576.5036119927
 20
1161.2980795577
 30
0.0
 11
576.5036119927
 21
1186.2980795577
 31
0.0
  0
LINE
  5
BA
330
1F
100
AcDbEntity
  8
0
  6
Continuous
 62
     7
370
    25
100
AcDbLine
 10
-305.4963880073
 20
1186.2980795577
 30
0.0
 11
-305.4963880073
 21
1161.2980795577
 31
0.0
  0
ARC
  5
BB
330
1F
100
AcDbEntity
  8
0
  6
Continuous
 62
     7
370
    25
100
AcDbCircle
 10
25007.5036119932
 20
1186.2980795577
 30
0.0
 40
25313.00000000052
100
AcDbArc
 50
179.4907075355
 51
180.0
  0
ARC
  5
BC
330
1F
100
AcDbEntity
  8
0
  6
Continuous
 62
     7
370
    25
100
AcDbCircle
 10
-24736.4963880078
 20
1186.2980795577
 30
0.0
 40
25313.00000000051
100
AcDbArc
 50
0.0
 51
0.5092924645
  0
LINE
  5
BD
330
1F
100
AcDbEntity
  8
0
  6
Continuous
 62
     7
370
    25
100
AcDbLine
 10
575.5036119927
 20
936.2980795577
 30
0.0
 11
-304.4963880073
 21
936.2980795577
 31
0.0
  0
LINE
  5
BE
330
1F
100
AcDbEntity
  8
0
  6
Continuous
 62
     7
370
    25
100
AcDbLine
 10
575.5036119927
 20
1411.2980795577
 30
0.0
 11
-304.4963880073
 21
1411.2980795577
 31
0.0
  0
LINE
  5
BF
330
1F
100
AcDbEntity
  8
0
  6
Continuous
 62
     1
370
    25
100
AcDbLine
 10
576.5036119927
 20
1161.2980795577
 30
0.0
 11
-305.4963880073
 21
1161.2980795577
 31
0.0
  0
LINE
  5
C0
330
1F
100
AcDbEntity
  8
0
  6
Continuous
 62
     1
370
    25
100
AcDbLine
 10
576.5036119927
 20
1186.2980795577
 30
0.0
 11
-305.4963880073
 21
1186.2980795577
 31
0.0
  0
ARC
  5
C1
330
1F
100
AcDbEntity
  8
0
  6
Continuous
 62
     7
370
    25
100
AcDbCircle
 10
-921.3587929857
 20
24997.2740758029
 30
0.0
 40
25313.00000000052
100
AcDbArc
 50
270.0
 51
270.5092924645
  0
LINE
  5
C2
330
1F
100
AcDbEntity
  8
0
  6
Continuous
 62
     7
370
    25
100
AcDbLine
 10
-696.3587929857
 20
565.2740758024
 30
0.0
 11
-701.3587929857
 21
565.3180272497
 31
0.0
  0
ARC
  5
C3
330
1F
100
AcDbEntity
  8
0
  6
Continuous
 62
     7
370
    25
100
AcDbCircle
 10
-921.3587929857
 20
-24746.7259241981
 30
0.0
 40
25313.00000000051
100
AcDbArc
 50
89.533715448
 51
90.0
  0
LINE
  5
C4
330
1F
100
AcDbEntity
  8
0
  6
Continuous
 62
     7
370
    25
100
AcDbLine
 10
-921.3587929857
 20
566.2740758024
 30
0.0
 11
-946.3587929857
 21
566.2740758024
 31
0.0
  0
LINE
  5
C5
330
1F
100
AcDbEntity
  8
0
  6
Continuous
 62
     7
370
    25
100
AcDbLine
 10
-946.3587929857
 20
-315.7259241976
 30
0.0
 11
-921.3587929857
 21
-315.7259241976
 31
0.0
  0
ARC
  5
C6
330
1F
100
AcDbEntity
  8
0
  6
Continuous
 62
     7
370
    25
100
AcDbCircle
 10
-946.3587929857
 20
24997.2740758029
 30
0.0
 40
25313.00000000052
100
AcDbArc
 50
269.4907075355
 51
270.0
  0
ARC
  5
C7
330
1F
100
AcDbEntity
  8
0
  6
Continuous
 62
     7
370
    25
100
AcDbCircle
 10
-946.3587929857
 20
-24746.7259241981
 30
0.0
 40
25313.00000000051
100
AcDbArc
 50
90.0
 51
90.466284552
  0
LINE
  5
C8
330
1F
100
AcDbEntity
  8
0
  6
Continuous
 62
     7
370
    25
100
AcDbLine
 10
-1166.3587929857
 20
565.3180272497
 30
0.0
 11
-1171.3587929857
 21
565.2740758024
 31
0.0
  0
LINE
  5
C9
330
1F
100
AcDbEntity
  8
0
  6
Continuous
 62
     7
370
    25
100
AcDbLine
 10
-701.3587929857
 20
563.9229229783
 30
0.0
 11
-701.3587929857
 21
570.2740758024
 31
0.0
  0
LINE
  5
CA
330
1F
100
AcDbEntity
  8
0
  6
Continuous
 62
     7
370
    25
100
AcDbLine
 10
-715.3587929857
 20
570.2740758024
 30
0.0
 11
-715.3587929857
 21
564.0396211624
 31
0.0
  0
LINE
  5
CB
330
1F
100
AcDbEntity
  8
0
  6
Continuous
 62
     7
370
    25
100
AcDbLine
 10
-1152.3587929857
 20
564.0398582595
 30
0.0
 11
-1152.3587929857
 21
570.2740758024
 31
0.0
  0
LINE
  5
CC
330
1F
100
AcDbEntity
  8
0
  6
Continuous
 62
     7
370
    25
100
AcDbLine
 10
-1166.3587929857
 20
570.2740758024
 30
0.0
 11
-1166.3587929857
 21
563.9230623325
 31
0.0
  0
LINE
  5
CD
330
1F
100
AcDbEntity
  8
0
  6
Continuous
 62
     7
370
    25
100
AcDbLine
 10
-696.3587929857
 20
565.2740758024
 30
0.0
 11
-696.3587929857
 21
-314.7259241976
 31
0.0
  0
SPLINE
  5
CE
330
1F
100
AcDbEntity
  8
0
  6
Continuous
 62
     7
370
    25
100
AcDbSpline
210
0.0
220
0.0
230
1.0
 70
     8
 71
     3
 72
    10
 73
     6
 74
     0
 42
0.00000001
 43
0.00000001
 40
0.0
 40
0.0
 40
0.0
 40
0.0
 40
0.4040625536888451
 40
0.8080966838946525
 40
1.0
 40
1.0
 40
1.0
 40
1.0
 10
-713.0469157437437
 20
563.5774214041587
 30
0.0
 10
-713.5726664193483
 20
563.634826917388
 30
0.0
 10
-714.6241307870127
 20
563.749633905698
 30
0.0
 10
-715.3418126023139
 20
563.9192245928292
 30
0.0
 10
-715.2791577894644
 20
564.0102948034803
 30
0.0
 10
-715.2589817350308
 20
564.0396211623633
 30
0.0
  0
SPLINE
  5
CF
330
1F
100
AcDbEntity
  8
0
  6
Continuous
 62
     7
370
    25
100
AcDbSpline
210
0.0
220
0.0
230
1.0
 70
     8
 71
     3
 72
    15
 73
    11
 74
     0
 42
0.00000001
 43
0.00000001
 40
0.0
 40
0.0
 40
0.0
 40
0.0
 40
0.0312900040404764
 40
0.1783272229002799
 40
0.3253826472803222
 40
0.472107522567364
 40
0.6182584240309424
 40
0.7639030711525228
 40
0.9094316346093626
 40
1.0
 40
1.0
 40
1.0
 40
1.0
 10
-701.4254443056822
 20
563.9229229782852
 30
0.0
 10
-701.4049097336602
 20
563.909788766506
 30
0.0
 10
-701.2878796048881
 20
563.8349345891618
 30
0.0
 10
-701.8593599739121
 20
563.6927247039877
 30
0.0
 10
-703.1220303482257
 20
563.5259338341056
 30
0.0
 10
-705.0433367676933
 20
563.4064946847001
 30
0.0
 10
-707.3191365629013
 20
563.3548820526375
 30
0.0
 10
-709.7018371425962
 20
563.38061799614
 30
0.0
 10
-711.6749769098499
 20
563.4651903029427
 30
0.0
 10
-712.6665439693516
 20
563.5463051896038
 30
0.0
 10
-713.0469157437437
 20
563.5774214041586
 30
0.0
  0
LINE
  5
D0
330
1F
100
AcDbEntity
  8
0
  6
Continuous
 62
     7
370
    25
100
AcDbLine
 10
-1171.3587929857
 20
565.2740758024
 30
0.0
 11
-1171.3587929857
 21
-314.7259241976
 31
0.0
  0
SPLINE
  5
D1
330
1F
100
AcDbEntity
  8
0
  6
Continuous
 62
     7
370
    25
100
AcDbSpline
210
0.0
220
0.0
230
1.0
 70
     8
 71
     3
 72
    10
 73
     6
 74
     0
 42
0.00000001
 43
0.00000001
 40
0.0
 40
0.0
 40
0.0
 40
0.0
 40
0.408265216815741
 40
0.8164921117044593
 40
1.0
 40
1.0
 40
1.0
 40
1.0
 10
-1164.096690663135
 20
563.5019151130958
 30
0.0
 10
-1164.615974398122
 20
563.5508293833628
 30
0.0
 10
-1165.654493125384
 20
563.6486533325458
 30
0.0
 10
-1166.350959397663
 20
563.8047709583517
 30
0.0
 10
-1166.281525224633
 20
563.89506155151
 30
0.0
 10
-1166.259992404811
 20
563.923062332526
 30
0.0
  0
SPLINE
  5
D2
330
1F
100
AcDbEntity
  8
0
  6
Continuous
 62
     7
370
    25
100
AcDbSpline
210
0.0
220
0.0
230
1.0
 70
     8
 71
     3
 72
    15
 73
    11
 74
     0
 42
0.00000001
 43
0.00000001
 40
0.0
 40
0.0
 40
0.0
 40
0.0
 40
0.0349020410596386
 40
0.1812153803450478
 40
0.3277362203405347
 40
0.4740858198642331
 40
0.6199039201086215
 40
0.765110555427117
 40
0.9099985055482256
 40
1.0
 40
1.0
 40
1.0
 40
1.0
 10
-1152.430927157662
 20
564.0398582595308
 30
0.0
 10
-1152.409119794497
 20
564.0254898807176
 30
0.0
 10
-1152.295893476196
 20
563.9508876181412
 30
0.0
 10
-1152.882123945566
 20
563.7975833067917
 30
0.0
 10
-1154.163803507856
 20
563.610033762492
 30
0.0
 10
-1156.098329636164
 20
563.4593369211952
 30
0.0
 10
-1158.383801502723
 20
563.370987229342
 30
0.0
 10
-1160.768647289194
 20
563.3585849439422
 30
0.0
 10
-1162.735915547293
 20
563.4116862753779
 30
0.0
 10
-1163.719727875541
 20
563.4769198631155
 30
0.0
 10
-1164.096690663135
 20
563.5019151130958
 30
0.0
  0
LINE
  5
D3
330
1F
100
AcDbEntity
  8
0
  6
Continuous
 62
     7
370
    25
100
AcDbLine
 10
-701.3587929857
 20
570.2740758024
 30
0.0
 11
-715.3587929857
 21
570.2740758024
 31
0.0
  0
LINE
  5
D4
330
1F
100
AcDbEntity
  8
0
  6
Continuous
 62
     7
370
    25
100
AcDbLine
 10
-1152.3587929857
 20
570.2740758024
 30
0.0
 11
-1166.3587929857
 21
570.2740758024
 31
0.0
  0
LINE
  5
D5
330
1F
100
AcDbEntity
  8
0
  6
Continuous
 62
     1
370
    25
100
AcDbLine
 10
-921.3587929857
 20
566.2740758024
 30
0.0
 11
-921.3587929857
 21
-315.7259241976
 31
0.0
  0
LINE
  5
D6
330
1F
100
AcDbEntity
  8
0
  6
Continuous
 62
     1
370
    25
100
AcDbLine
 10
-946.3587929857
 20
566.2740758024
 30
0.0
 11
-946.3587929857
 21
-315.7259241976
 31
0.0
  0
ARC
  5
D7
330
1F
100
AcDbEntity
  8
0
  6
Continuous
 62
     7
370
    25
100
AcDbCircle
 10
-24736.4963880078
 20
-888.9896513127
 30
0.0
 40
25313.00000000051
100
AcDbArc
 50
0.0
 51
0.5092924645
  0
ARC
  5
D8
330
1F
100
AcDbEntity
  8
0
  6
Continuous
 62
     7
370
    25
100
AcDbCircle
 10
25007.5036119932
 20
-888.9896513127
 30
0.0
 40
25313.00000000052
100
AcDbArc
 50
179.4907075355
 51
180.0
  0
LINE
  5
D9
330
1F
100
AcDbEntity
  8
0
  6
Continuous
 62
     7
370
    25
100
AcDbLine
 10
-305.4963880073
 20
-888.9896513127
 30
0.0
 11
-305.4963880073
 21
-913.9896513127
 31
0.0
  0
LINE
  5
DA
330
1F
100
AcDbEntity
  8
0
  6
Continuous
 62
     7
370
    25
100
AcDbLine
 10
576.5036119927
 20
-913.9896513127
 30
0.0
 11
576.5036119927
 21
-888.9896513127
 31
0.0
  0
ARC
  5
DB
330
1F
100
AcDbEntity
  8
0
  6
Continuous
 62
     7
370
    25
100
AcDbCircle
 10
-24736.4963880078
 20
-913.9896513127
 30
0.0
 40
25313.00000000051
100
AcDbArc
 50
359.4907075355
 51
0.0
  0
ARC
  5
DC
330
1F
100
AcDbEntity
  8
0
  6
Continuous
 62
     7
370
    25
100
AcDbCircle
 10
25007.5036119932
 20
-913.9896513127
 30
0.0
 40
25313.00000000052
100
AcDbArc
 50
180.0
 51
180.5092924645
  0
CIRCLE
  5
DD
330
1F
100
AcDbEntity
  8
0
  6
Continuous
 62
     7
370
    25
100
AcDbCircle
 10
170.5036119927
 20
-675.9896513127
 30
0.0
 40
7.0
  0
CIRCLE
  5
DE
330
1F
100
AcDbEntity
  8
0
  6
Continuous
 62
     7
370
    25
100
AcDbCircle
 10
170.5036119927
 20
-675.9896513127
 30
0.0
 40
5.0
  0
CIRCLE
  5
DF
330
1F
100
AcDbEntity
  8
0
  6
Continuous
 62
     7
370
    25
100
AcDbCircle
 10
100.5036119927
 20
-675.9896513127
 30
0.0
 40
5.0
  0
CIRCLE
  5
E0
330
1F
100
AcDbEntity
  8
0
  6
Continuous
 62
     7
370
    25
100
AcDbCircle
 10
100.5036119927
 20
-675.9896513127
 30
0.0
 40
7.0
  0
CIRCLE
  5
E1
330
1F
100
AcDbEntity
  8
0
  6
Continuous
 62
     7
370
    25
100
AcDbCircle
 10
170.5036119927
 20
-1126.9896513127
 30
0.0
 40
7.0
  0
CIRCLE
  5
E2
330
1F
100
AcDbEntity
  8
0
  6
Continuous
 62
     7
370
    25
100
AcDbCircle
 10
170.5036119927
 20
-1126.9896513127
 30
0.0
 40
5.0
  0
CIRCLE
  5
E3
330
1F
100
AcDbEntity
  8
0
  6
Continuous
 62
     7
370
    25
100
AcDbCircle
 10
100.5036119927
 20
-1126.9896513127
 30
0.0
 40
5.0
  0
CIRCLE
  5
E4
330
1F
100
AcDbEntity
  8
0
  6
Continuous
 62
     7
370
    25
100
AcDbCircle
 10
100.5036119927
 20
-1126.9896513127
 30
0.0
 40
7.0
  0
LINE
  5
E5
330
1F
100
AcDbEntity
  8
0
  6
Continuous
 62
     7
370
    25
100
AcDbLine
 10
-304.4963880073
 20
-663.9896513127
 30
0.0
 11
575.5036119927
 21
-663.9896513127
 31
0.0
  0
LINE
  5
E6
330
1F
100
AcDbEntity
  8
0
  6
Continuous
 62
     7
370
    25
100
AcDbLine
 10
-304.4963880073
 20
-1138.9896513127
 30
0.0
 11
575.5036119927
 21
-1138.9896513127
 31
0.0
  0
LINE
  5
E7
330
1F
100
AcDbEntity
  8
0
  6
Continuous
 62
     1
370
    25
100
AcDbLine
 10
-305.4963880073
 20
-888.9896513127
 30
0.0
 11
576.5036119927
 21
-888.9896513127
 31
0.0
  0
LINE
  5
E8
330
1F
100
AcDbEntity
  8
0
  6
Continuous
 62
     1
370
    25
100
AcDbLine
 10
-305.4963880073
 20
-913.9896513127
 30
0.0
 11
576.5036119927
 21
-913.9896513127
 31
0.0
  0
INSERT
  5
F4
330
1F
100
AcDbEntity
  8
FORMAT
 62
     7
100
AcDbBlockReference
  2
SW_CENTERMARKSYMBOL_1
 10
135.5036119927
 20
-868.4896513127
 30
0.0
  0
INSERT
  5
100
330
1F
100
AcDbEntity
  8
FORMAT
 62
     7
100
AcDbBlockReference
  2
SW_CENTERMARKSYMBOL_2
 10
135.5036119927
 20
-934.4896513127
 30
0.0
  0
SPLINE
  5
101
330
1F
100
AcDbEntity
  8
0
  6
Continuous
 62
     7
370
    25
100
AcDbSpline
210
0.0
220
0.0
230
1.0
 70
     8
 71
     3
 72
    11
 73
     7
 74
     0
 42
0.00000001
 43
0.00000001
 40
0.0
 40
0.0
 40
0.0
 40
0.0
 40
0.1483270380611257
 40
0.544013105154342
 40
0.939685136607009
 40
1.0
 40
1.0
 40
1.0
 40
1.0
 10
1037.0190905837
 20
-611.5967644599991
 30
0.0
 10
1029.079199313753
 20
-616.1688424653864
 30
0.0
 10
999.9583798002396
 20
-632.9376688724337
 30
0.0
 10
949.8337545726312
 20
-662.2066905985881
 30
0.0
 10
904.4473908749931
 20
-688.8084807303544
 30
0.0
 10
880.2352558454329
 20
-703.1972621969406
 30
0.0
 10
877.0326383288597
 20
-705.1005129226935
 30
0.0
  0
SPLINE
  5
102
330
1F
100
AcDbEntity
  8
0
  6
Continuous
 62
     7
370
    25
100
AcDbSpline
210
0.0
220
0.0
230
1.0
 70
     8
 71
     3
 72
    10
 73
     6
 74
     0
 42
0.00000001
 43
0.00000001
 40
0.0
 40
0.0
 40
0.0
 40
0.0
 40
0.3569299989654143
 40
0.7526316717534665
 40
1.0
 40
1.0
 40
1.0
 40
1.0
 10
1316.970842158863
 20
-1467.178774687017
 30
0.0
 10
1336.173008739735
 20
-1456.346244240918
 30
0.0
 10
1376.663185460495
 20
-1433.504495095147
 30
0.0
 10
1430.314803697177
 20
-1402.892759977692
 30
0.0
 10
1464.713967404498
 20
-1383.028795286297
 30
0.0
 10
1477.946218334675
 20
-1375.387767513033
 30
0.0
  0
LINE
  5
103
330
1F
100
AcDbEntity
  8
0
  6
Continuous
 62
     7
370
    25
100
AcDbLine
 10
1054.6782658282
 20
-601.359603372
 30
0.0
 11
1037.0005962985
 21
-611.5647047698
 31
0.0
  0
LINE
  5
104
330
1F
100
AcDbEntity
  8
0
  6
Continuous
 62
     7
370
    25
100
AcDbLine
 10
1477.964757391
 20
-1375.4198013895
 30
0.0
 11
1495.6424269207
 21
-1365.2146999918
 31
0.0
  0
SPLINE
  5
105
330
1F
100
AcDbEntity
  8
0
  6
Continuous
 62
     7
370
    25
100
AcDbSpline
210
0.0
220
0.0
230
1.0
 70
     8
 71
     3
 72
    10
 73
     6
 74
     0
 42
0.00000001
 43
0.00000001
 40
0.0
 40
0.0
 40
0.0
 40
0.0
 40
0.3569274004716652
 40
0.7526305005891699
 40
0.9999999999999999
 40
0.9999999999999999
 40
0.9999999999999999
 40
0.9999999999999999
 10
1215.671554159818
 20
-509.600984364541
 30
0.0
 10
1196.46959667831
 20
-520.4333969509153
 30
0.0
 10
1155.979629103667
 20
-543.2750283210414
 30
0.0
 10
1102.3282046001
 20
-573.8866533918323
 30
0.0
 10
1067.929025965278
 20
-593.7506266808947
 30
0.0
 10
1054.696760113365
 20
-601.3916630622139
 30
0.0
  0
SPLINE
  5
106
330
1F
100
AcDbEntity
  8
0
  6
Continuous
 62
     7
370
    25
100
AcDbSpline
210
0.0
220
0.0
230
1.0
 70
     8
 71
     3
 72
    11
 73
     7
 74
     0
 42
0.00000001
 43
0.00000001
 40
0.0
 40
0.0
 40
0.0
 40
0.0
 40
0.1483268056875195
 40
0.5440115089120885
 40
0.9396821765385036
 40
1.0
 40
1.0
 40
1.0
 40
1.0
 10
1495.623887864336
 20
-1365.182666115251
 30
0.0
 10
1503.563794063871
 20
-1360.610579515006
 30
0.0
 10
1532.684628509191
 20
-1343.841744517536
 30
0.0
 10
1582.809268798718
 20
-1314.572714416574
 30
0.0
 10
1628.195800833966
 20
-1287.970824524759
 30
0.0
 10
1652.408103904698
 20
-1273.581942804928
 30
0.0
 10
1655.610889612583
 20
-1271.678592074924
 30
0.0
  0
LINE
  5
107
330
1F
100
AcDbEntity
  8
0
  6
Continuous
 62
     7
370
    25
100
AcDbLine
 10
1138.6176697936
 20
-736.8124532037
 30
0.0
 11
1138.6176697936
 21
-731.3661976565
 31
0.0
  0
LINE
  5
108
330
1F
100
AcDbEntity
  8
0
  6
Continuous
 62
     7
370
    25
100
AcDbLine
 10
1124.6176697936
 20
-731.3661976565
 30
0.0
 11
1124.6176697936
 21
-736.2399934071
 31
0.0
  0
LINE
  5
109
330
1F
100
AcDbEntity
  8
0
  6
Continuous
 62
     7
370
    25
100
AcDbLine
 10
1089.1201951105
 20
-707.5998611281
 30
0.0
 11
1089.1201951105
 21
-702.7919137427
 31
0.0
  0
LINE
  5
10A
330
1F
100
AcDbEntity
  8
0
  6
Continuous
 62
     7
370
    25
100
AcDbLine
 10
1075.1201951105
 20
-702.7919137427
 30
0.0
 11
1075.1201951105
 21
-708.3041539337
 31
0.0
  0
LINE
  5
10B
330
1F
100
AcDbEntity
  8
0
  6
Continuous
 62
     7
370
    25
100
AcDbLine
 10
1457.5228281087
 20
-552.7800243702
 30
0.0
 11
1457.5228281087
 21
-547.2661684405
 31
0.0
  0
LINE
  5
10C
330
1F
100
AcDbEntity
  8
0
  6
Continuous
 62
     7
370
    25
100
AcDbLine
 10
1443.5228281087
 20
-547.2661684405
 30
0.0
 11
1443.5228281087
 21
-552.0722328173
 31
0.0
  0
LINE
  5
10D
330
1F
100
AcDbEntity
  8
0
  6
Continuous
 62
     7
370
    25
100
AcDbLine
 10
1408.0253534257
 20
-523.5670268806
 30
0.0
 11
1408.0253534257
 21
-518.6918845267
 31
0.0
  0
LINE
  5
10E
330
1F
100
AcDbEntity
  8
0
  6
Continuous
 62
     7
370
    25
100
AcDbLine
 10
1394.0253534257
 20
-518.6918845267
 30
0.0
 11
1394.0253534257
 21
-524.1363343942
 31
0.0
  0
LWPOLYLINE
  5
10F
330
1F
100
AcDbEntity
  8
0
  6
Continuous
 62
     7
370
    25
100
AcDbPolyline
 90
      223
 70
   128
 43
0.0
 10
787.2566673557
 20
-905.7283810587
 10
787.381271498
 20
-895.6331575749
 10
787.7549841187
 20
-885.6898851018
 10
788.3775058793
 20
-875.9065280591
 10
789.2483381488
 20
-866.2909227765
 10
790.3667834029
 20
-856.850771217
 10
791.7319457828
 20
-847.5936348075
 10
793.3427318131
 20
-838.5269283825
 10
795.1978512768
 20
-829.6579142449
 10
797.2958182499
 20
-820.9936963486
 10
799.6349522906
 20
-812.5412146088
 10
802.2133797859
 20
-804.3072393431
 10
805.0290354519
 20
-796.2983658485
 10
808.0796639887
 20
-788.5210091185
 10
811.3628218863
 20
-780.9813987053
 10
814.8758793817
 20
-773.6855737293
 10
818.6160225661
 20
-766.6393780427
 10
822.580255638
 20
-759.8484555477
 10
826.7654033032
 20
-753.3182456766
 10
831.1681133178
 20
-747.0539790346
 10
835.784859174
 20
-741.06067321
 10
840.6119429239
 20
-735.3431287555
 10
845.6454981423
 20
-729.9059253429
 10
850.8814930231
 20
-724.7534180945
 10
856.3157336088
 20
-719.8897340955
 10
861.9438671502
 20
-715.3187690873
 10
867.7613855924
 20
-711.044184348
 10
873.763629186
 20
-707.0694037591
 10
879.9457902193
 20
-703.3976110631
 10
886.3029168693
 20
-700.0317473138
 10
892.829917168
 20
-696.9745085202
 10
899.5215630813
 20
-694.2283434869
 10
906.3724946959
 20
-691.7954518531
 10
913.3772245132
 20
-689.6777823303
 10
920.5301418443
 20
-687.8770311417
 10
927.8255173042
 20
-686.3946406633
 10
935.2575074011
 20
-685.2317982689
 10
942.8201592168
 20
-684.3894353785
 10
950.5074151747
 20
-683.8682267129
 10
958.3131178923
 20
-683.6685897529
 10
966.2310151129
 20
-683.7906844047
 10
974.2547647134
 20
-684.2344128723
 10
982.3779397848
 20
-684.9994197355
 10
990.5940337794
 20
-686.0850922348
 10
998.8964657228
 20
-687.4905607618
 10
1007.2785854854
 20
-689.2146995563
 10
1015.7336791085
 20
-691.2561276077
 10
1024.2549741825
 20
-693.6132097612
 10
1032.8356452713
 20
-696.2840580275
 10
1041.4688193796
 20
-699.2665330953
 10
1050.1475814578
 20
-702.5582460443
 10
1058.864979941
 20
-706.1565602594
 10
1067.6140323172
 20
-710.0585935422
 10
1076.38773072
 20
-714.2612204195
 10
1085.1790475419
 20
-718.7610746471
 10
1093.9809410632
 20
-723.5545519058
 10
1102.7863610925
 20
-728.6378126884
 10
1111.5882546138
 20
-734.0067853756
 10
1120.3795714356
 20
-739.6571694967
 10
1129.1532698384
 20
-745.5844391743
 10
1137.9023222146
 20
-751.7838467499
 10
1146.6197206979
 20
-758.2504265862
 10
1155.2984827761
 20
-764.9789990449
 10
1163.9316568844
 20
-771.9641746352
 10
1172.5123279732
 20
-779.2003583309
 10
1181.0336230472
 20
-786.681754052
 10
1189.4887166702
 20
-794.4023693068
 10
1197.8708364328
 20
-802.3560199926
 10
1206.1732683763
 20
-810.5363353484
 10
1214.3893623708
 20
-818.936763058
 10
1222.5125374422
 20
-827.5505744984
 10
1230.5362870428
 20
-836.3708701293
 10
1238.4541842633
 20
-845.3905850194
 10
1246.2598869809
 20
-854.6024945056
 10
1253.9471429389
 20
-863.9992199795
 10
1261.5097947545
 20
-873.5732347978
 10
1268.9417848514
 20
-883.3168703108
 10
1276.2371603114
 20
-893.2223220053
 10
1283.3900776425
 20
-903.2816557555
 10
1290.3948074597
 20
-913.4868141783
 10
1297.2457390743
 20
-923.829623087
 10
1303.9373849876
 20
-934.301798039
 10
1310.4643852864
 20
-944.8949509712
 10
1316.8215119364
 20
-955.6005969189
 10
1323.0036729697
 20
-966.4101608122
 10
1329.0059165632
 20
-977.3149843442
 10
1334.8234350055
 20
-988.3063329065
 10
1340.4515685469
 20
-999.3754025855
 10
1345.8858091326
 20
-1010.5133272139
 10
1351.1218040133
 20
-1021.7111854726
 10
1356.1553592317
 20
-1032.9600080366
 10
1360.9824429816
 20
-1044.2507847592
 10
1365.5991888378
 20
-1055.5744718889
 10
1370.0018988525
 20
-1066.9219993136
 10
1374.1870465176
 20
-1078.2842778254
 10
1378.1512795895
 20
-1089.6522064009
 10
1381.8914227739
 20
-1101.0166794912
 10
1385.4044802694
 20
-1112.3685943151
 10
1388.6876381669
 20
-1123.6988581504
 10
1391.7382667037
 20
-1134.9983956173
 10
1394.5539223698
 20
-1146.2581559469
 10
1397.132349865
 20
-1157.4691202316
 10
1399.4714839057
 20
-1168.6223086486
 10
1401.5694508788
 20
-1179.7087876527
 10
1403.4245703426
 20
-1190.7196771322
 10
1405.0353563728
 20
-1201.6461575212
 10
1406.4005187528
 20
-1212.4794768646
 10
1407.5189640068
 20
-1223.2109578278
 10
1408.3897962763
 20
-1233.8320046473
 10
1409.0123180369
 20
-1244.3341100158
 10
1409.3860306576
 20
-1254.7088618965
 10
1409.5106347999
 20
-1264.9479502607
 10
1409.3860306576
 20
-1275.0431737445
 10
1409.0123180369
 20
-1284.9864462177
 10
1408.3897962763
 20
-1294.7698032604
 10
1407.5189640068
 20
-1304.385408543
 10
1406.4005187528
 20
-1313.8255601025
 10
1405.0353563728
 20
-1323.082696512
 10
1403.4245703426
 20
-1332.1494029369
 10
1401.5694508788
 20
-1341.0184170746
 10
1399.4714839057
 20
-1349.6826349709
 10
1397.132349865
 20
-1358.1351167107
 10
1394.5539223698
 20
-1366.3690919763
 10
1391.7382667037
 20
-1374.377965471
 10
1388.6876381669
 20
-1382.1553222009
 10
1385.4044802694
 20
-1389.6949326142
 10
1381.8914227739
 20
-1396.9907575901
 10
1378.1512795895
 20
-1404.0369532768
 10
1374.1870465176
 20
-1410.8278757718
 10
1370.0018988525
 20
-1417.3580856429
 10
1365.5991888378
 20
-1423.6223522849
 10
1360.9824429816
 20
-1429.6156581095
 10
1356.1553592317
 20
-1435.3332025639
 10
1351.1218040133
 20
-1440.7704059766
 10
1345.8858091326
 20
-1445.9229132249
 10
1340.4515685468
 20
-1450.786597224
 10
1334.8234350055
 20
-1455.3575622321
 10
1329.0059165632
 20
-1459.6321469714
 10
1323.0036729697
 20
-1463.6069275604
 10
1316.8215119364
 20
-1467.2787202563
 10
1310.4643852864
 20
-1470.6445840056
 10
1303.9373849876
 20
-1473.7018227993
 10
1297.2457390743
 20
-1476.4479878326
 10
1290.3948074597
 20
-1478.8808794664
 10
1283.3900776425
 20
-1480.9985489891
 10
1276.2371603114
 20
-1482.7993001778
 10
1268.9417848514
 20
-1484.2816906561
 10
1261.5097947545
 20
-1485.4445330506
 10
1253.9471429389
 20
-1486.2868959409
 10
1246.2598869809
 20
-1486.8081046065
 10
1238.4541842633
 20
-1487.0077415666
 10
1230.5362870428
 20
-1486.8856469147
 10
1222.5125374422
 20
-1486.4419184471
 10
1214.3893623708
 20
-1485.6769115839
 10
1206.1732683763
 20
-1484.5912390847
 10
1197.8708364328
 20
-1483.1857705576
 10
1189.4887166702
 20
-1481.4616317631
 10
1181.0336230471
 20
-1479.4202037117
 10
1172.5123279732
 20
-1477.0631215582
 10
1163.9316568844
 20
-1474.3922732919
 10
1155.2984827761
 20
-1471.4097982242
 10
1146.6197206979
 20
-1468.1180852752
 10
1137.9023222146
 20
-1464.51977106
 10
1129.1532698384
 20
-1460.6177377773
 10
1120.3795714356
 20
-1456.4151108999
 10
1111.5882546138
 20
-1451.9152566723
 10
1102.7863610925
 20
-1447.1217794137
 10
1093.9809410632
 20
-1442.038518631
 10
1085.1790475419
 20
-1436.6695459438
 10
1076.38773072
 20
-1431.0191618228
 10
1067.6140323172
 20
-1425.0918921452
 10
1058.864979941
 20
-1418.8924845696
 10
1050.1475814578
 20
-1412.4259047333
 10
1041.4688193796
 20
-1405.6973322746
 10
1032.8356452713
 20
-1398.7121566842
 10
1024.2549741825
 20
-1391.4759729885
 10
1015.7336791085
 20
-1383.9945772675
 10
1007.2785854854
 20
-1376.2739620126
 10
998.8964657228
 20
-1368.3203113268
 10
990.5940337794
 20
-1360.1399959711
 10
982.3779397848
 20
-1351.7395682615
 10
974.2547647134
 20
-1343.1257568211
 10
966.2310151129
 20
-1334.3054611902
 10
958.3131178923
 20
-1325.2857463
 10
950.5074151747
 20
-1316.0738368138
 10
942.8201592168
 20
-1306.6771113399
 10
935.2575074011
 20
-1297.1030965217
 10
927.8255173042
 20
-1287.3594610086
 10
920.5301418443
 20
-1277.4540093141
 10
913.3772245132
 20
-1267.3946755639
 10
906.3724946959
 20
-1257.1895171411
 10
899.5215630813
 20
-1246.8467082324
 10
892.829917168
 20
-1236.3745332804
 10
886.3029168693
 20
-1225.7813803482
 10
879.9457902192
 20
-1215.0757344005
 10
873.763629186
 20
-1204.2661705073
 10
867.7613855924
 20
-1193.3613469753
 10
861.9438671502
 20
-1182.3699984129
 10
856.3157336088
 20
-1171.300928734
 10
850.881493023
 20
-1160.1630041056
 10
845.6454981423
 20
-1148.9651458469
 10
840.6119429239
 20
-1137.7163232829
 10
835.784859174
 20
-1126.4255465603
 10
831.1681133178
 20
-1115.1018594305
 10
826.7654033032
 20
-1103.7543320058
 10
822.580255638
 20
-1092.3920534941
 10
818.6160225661
 20
-1081.0241249186
 10
814.8758793817
 20
-1069.6596518283
 10
811.3628218862
 20
-1058.3077370044
 10
808.0796639887
 20
-1046.977473169
 10
805.0290354519
 20
-1035.6779357022
 10
802.2133797859
 20
-1024.4181753725
 10
799.6349522906
 20
-1013.2072110878
 10
797.2958182499
 20
-1002.0540226709
 10
795.1978512768
 20
-990.9675436667
 10
793.3427318131
 20
-979.9566541873
 10
791.7319457828
 20
-969.0301737982
 10
790.3667834029
 20
-958.1968544548
 10
789.2483381488
 20
-947.4653734917
 10
788.3775058793
 20
-936.8443266722
 10
787.7549841187
 20
-926.3422213036
 10
787.381271498
 20
-915.967469423
 10
787.2566673557
 20
-905.7283810587
  0
SPLINE
  5
110
330
1F
100
AcDbEntity
  8
0
  6
Continuous
 62
     7
370
    25
100
AcDbSpline
210
0.0
220
0.0
230
1.0
 70
     8
 71
     3
 72
    13
 73
     9
 74
     0
 42
0.00000001
 43
0.00000001
 40
0.0
 40
0.0
 40
0.0
 40
0.0
 40
0.1913350859800941
 40
0.3826564881489997
 40
0.5743145012022403
 40
0.7663472938691254
 40
0.9584498997181611
 40
1.0
 40
1.0
 40
1.0
 40
1.0
 10
1083.458344702688
 20
-711.57510505134
 30
0.0
 10
1082.669888315278
 20
-711.65009651904
 30
0.0
 10
1081.093031928907
 20
-711.8000740912361
 30
0.0
 10
1078.809175489847
 20
-711.4823455733609
 30
0.0
 10
1076.890814327305
 20
-710.8026072767692
 30
0.0
 10
1075.625256961287
 20
-709.7977948642556
 30
0.0
 10
1075.050101421936
 20
-708.9098755548915
 30
0.0
 10
1075.167091427109
 20
-708.3987854615375
 30
0.0
 10
1075.187895579251
 20
-708.3078990986807
 30
0.0
  0
SPLINE
  5
111
330
1F
100
AcDbEntity
  8
0
  6
Continuous
 62
     7
370
    25
100
AcDbSpline
210
0.0
220
0.0
230
1.0
 70
     8
 71
     3
 72
    12
 73
     8
 74
     0
 42
0.00000001
 43
0.00000001
 40
0.0
 40
0.0
 40
0.0
 40
0.0
 40
0.115039221500516
 40
0.3596110540680596
 40
0.6037768694244211
 40
0.8478321748051287
 40
1.0
 40
1.0
 40
1.0
 40
1.0
 10
1089.020871393539
 20
-707.6004566294356
 30
0.0
 10
1089.041973319681
 20
-707.7998974683472
 30
0.0
 10
1089.10793765605
 20
-708.4233468395247
 30
0.0
 10
1088.368261545791
 20
-709.473754213276
 30
0.0
 10
1086.9269159093
 20
-710.5556734024658
 30
0.0
 10
1085.161541080025
 20
-711.2605693133067
 30
0.0
 10
1083.930948573871
 20
-711.4878275010832
 30
0.0
 10
1083.458344702688
 20
-711.57510505134
 30
0.0
  0
SPLINE
  5
112
330
1F
100
AcDbEntity
  8
0
  6
Continuous
 62
     7
370
    25
100
AcDbSpline
210
0.0
220
0.0
230
1.0
 70
     8
 71
     3
 72
    12
 73
     8
 74
     0
 42
0.00000001
 43
0.00000001
 40
0.0
 40
0.0
 40
0.0
 40
0.0
 40
0.2094035798876246
 40
0.4187875040505481
 40
0.6285964385169557
 40
0.8385196467358149
 40
1.0
 40
1.0
 40
1.0
 40
1.0
 10
1131.911117126527
 20
-740.933404880273
 30
0.0
 10
1131.120323220743
 20
-740.8676501519093
 30
0.0
 10
1129.538809637263
 20
-740.7361468672675
 30
0.0
 10
1127.387921873401
 20
-739.9337193336102
 30
0.0
 10
1125.740868370234
 20
-738.7893076002965
 30
0.0
 10
1124.746470678167
 20
-737.4902608902601
 30
0.0
 10
1124.705901688349
 20
-736.6162662184142
 30
0.0
 10
1124.68826293771
 20
-736.2362672550304
 30
0.0
  0
SPLINE
  5
113
330
1F
100
AcDbEntity
  8
0
  6
Continuous
 62
     7
370
    25
100
AcDbSpline
210
0.0
220
0.0
230
1.0
 70
     8
 71
     3
 72
    12
 73
     8
 74
     0
 42
0.00000001
 43
0.00000001
 40
0.0
 40
0.0
 40
0.0
 40
0.0
 40
0.2035956747743243
 40
0.4244114848763501
 40
0.6443013391283563
 40
0.8637086008221644
 40
1.0
 40
1.0
 40
1.0
 40
1.0
 10
1138.587902567918
 20
-736.8100040364956
 30
0.0
 10
1138.534555642947
 20
-737.2690594333392
 30
0.0
 10
1138.423349706643
 20
-738.2259971621535
 30
0.0
 10
1137.293008133131
 20
-739.4899046318557
 30
0.0
 10
1135.564219170768
 20
-740.4404706757017
 30
0.0
 10
1133.653581233942
 20
-740.9022958347495
 30
0.0
 10
1132.393815641194
 20
-740.9247870327071
 30
0.0
 10
1131.911117126527
 20
-740.933404880273
 30
0.0
  0
LWPOLYLINE
  5
114
330
1F
100
AcDbEntity
  8
0
  6
Continuous
 62
     7
370
    25
100
AcDbPolyline
 90
      201
 70
   128
 43
0.0
 10
847.3607437566
 20
-940.4257258112
 10
847.4846084082
 20
-931.3921321671
 10
847.8560801235
 20
-922.5104646718
 10
848.4747923047
 20
-913.7894884591
 10
849.3401343577
 20
-905.2378100794
 10
850.4512522944
 20
-896.8638690069
 10
851.8070495753
 20
-888.6759293104
 10
853.4061881924
 20
-880.6820714979
 10
855.2470899889
 20
-872.8901845418
 10
857.327938217
 20
-865.307958094
 10
859.6466793306
 20
-857.9428748965
 10
862.2010250123
 20
-850.8022033972
 10
864.9884544312
 20
-843.8929905768
 10
868.0062167311
 20
-837.2220549941
 10
871.2513337449
 20
-830.7959800573
 10
874.7206029339
 20
-824.6211075264
 10
878.4106005482
 20
-818.7035312551
 10
882.3176850057
 20
-813.0490911768
 10
886.4380004858
 20
-807.6633675412
 10
890.7674807345
 20
-802.5516754072
 10
895.3018530775
 20
-797.7190593978
 10
900.0366426368
 20
-793.1702887217
 10
904.9671767467
 20
-788.9098524663
 10
910.0885895653
 20
-784.9419551677
 10
915.3958268765
 20
-781.2705126616
 10
920.8836510778
 20
-777.8991482185
 10
926.5466463493
 20
-774.8311889681
 10
932.3792239983
 20
-772.0696626157
 10
938.3756279748
 20
-769.6172944544
 10
944.5299405522
 20
-767.4765046756
 10
950.8360881668
 20
-765.6494059803
 10
957.2878474124
 20
-764.1378014942
 10
963.8788511816
 20
-762.9431829886
 10
970.6025949492
 20
-762.0667294077
 10
977.4524431921
 20
-761.5093057054
 10
984.421635937
 20
-761.2714619914
 10
991.503295432
 20
-761.353432989
 10
998.6904329342
 20
-761.7551378025
 10
1005.9759556066
 20
-762.4761799979
 10
1013.3526735179
 20
-763.5158479936
 10
1020.8133067382
 20
-764.8731157627
 10
1028.3504925231
 20
-766.5466438458
 10
1035.9567925803
 20
-768.5347806728
 10
1043.62470041
 20
-770.8355641926
 10
1051.3466487128
 20
-773.4467238097
 10
1059.1150168582
 20
-776.3656826249
 10
1066.9221384045
 20
-779.589559978
 10
1074.7603086655
 20
-783.1151742916
 10
1082.6217923134
 20
-786.9390462097
 10
1090.4988310129
 20
-791.0574020326
 10
1098.3836510778
 20
-795.4661774403
 10
1106.2684711428
 20
-800.1610215036
 10
1114.1455098423
 20
-805.1373009784
 10
1122.0069934901
 20
-810.3901048776
 10
1129.8451637511
 20
-815.9142493179
 10
1137.6522852975
 20
-821.7042826356
 10
1145.4206534428
 20
-827.754490767
 10
1153.1426017457
 20
-834.0589028871
 10
1160.8105095753
 20
-840.6112973022
 10
1168.4168096326
 20
-847.4052075902
 10
1175.9539954175
 20
-854.4339289817
 10
1183.4146286377
 20
-861.6905249775
 10
1190.7913465491
 20
-869.1678341933
 10
1198.0768692215
 20
-876.8584774277
 10
1205.2640067237
 20
-884.7548649443
 10
1212.3456662187
 20
-892.8492039621
 10
1219.3148589635
 20
-901.1335063455
 10
1226.1647072064
 20
-909.5995964884
 10
1232.8884509741
 20
-918.2391193819
 10
1239.4794547432
 20
-927.0435488599
 10
1245.9312139888
 20
-936.0041960136
 10
1252.2373616035
 20
-945.1122177661
 10
1258.3916741808
 20
-954.3586255994
 10
1264.3880781574
 20
-963.7342944254
 10
1270.2206558064
 20
-973.2299715909
 10
1275.8836510778
 20
-982.8362860089
 10
1281.3714752791
 20
-992.543757407
 10
1286.6787125903
 20
-1002.3428056828
 10
1291.8001254089
 20
-1012.2237603587
 10
1296.7306595188
 20
-1022.1768701255
 10
1301.4654490781
 20
-1032.1923124654
 10
1305.9998214211
 20
-1042.2602033461
 10
1310.3293016698
 20
-1052.3706069747
 10
1314.4496171499
 20
-1062.5135456034
 10
1318.3567016074
 20
-1072.6790093766
 10
1322.0466992218
 20
-1082.8569662086
 10
1325.5159684107
 20
-1093.0373716849
 10
1328.7610854245
 20
-1103.2101789744
 10
1331.7788477244
 20
-1113.3653487445
 10
1334.5662771433
 20
-1123.4928590686
 10
1337.120622825
 20
-1133.5827153168
 10
1339.4393639387
 20
-1143.6249600192
 10
1341.5202121667
 20
-1153.6096826925
 10
1343.3611139632
 20
-1163.5270296211
 10
1344.9602525803
 20
-1173.3672135808
 10
1346.3160498613
 20
-1183.1205234981
 10
1347.4271677979
 20
-1192.7773340335
 10
1348.2925098509
 20
-1202.3281150811
 10
1348.9112220322
 20
-1211.763441173
 10
1349.2826937475
 20
-1221.0740007815
 10
1349.406558399
 20
-1230.2506055083
 10
1349.2826937475
 20
-1239.2841991524
 10
1348.9112220322
 20
-1248.1658666476
 10
1348.2925098509
 20
-1256.8868428604
 10
1347.4271677979
 20
-1265.4385212401
 10
1346.3160498613
 20
-1273.8124623126
 10
1344.9602525803
 20
-1282.0004020091
 10
1343.3611139632
 20
-1289.9942598216
 10
1341.5202121667
 20
-1297.7861467776
 10
1339.4393639387
 20
-1305.3683732254
 10
1337.120622825
 20
-1312.733456423
 10
1334.5662771433
 20
-1319.8741279223
 10
1331.7788477244
 20
-1326.7833407427
 10
1328.7610854245
 20
-1333.4542763253
 10
1325.5159684107
 20
-1339.8803512622
 10
1322.0466992218
 20
-1346.0552237931
 10
1318.3567016074
 20
-1351.9728000643
 10
1314.4496171499
 20
-1357.6272401426
 10
1310.3293016698
 20
-1363.0129637783
 10
1305.9998214211
 20
-1368.1246559123
 10
1301.4654490781
 20
-1372.9572719216
 10
1296.7306595188
 20
-1377.5060425977
 10
1291.8001254089
 20
-1381.7664788532
 10
1286.6787125903
 20
-1385.7343761517
 10
1281.3714752791
 20
-1389.4058186578
 10
1275.8836510778
 20
-1392.7771831009
 10
1270.2206558064
 20
-1395.8451423513
 10
1264.3880781574
 20
-1398.6066687038
 10
1258.3916741808
 20
-1401.059036865
 10
1252.2373616035
 20
-1403.1998266439
 10
1245.9312139888
 20
-1405.0269253392
 10
1239.4794547432
 20
-1406.5385298252
 10
1232.8884509741
 20
-1407.7331483308
 10
1226.1647072064
 20
-1408.6096019117
 10
1219.3148589635
 20
-1409.1670256141
 10
1212.3456662187
 20
-1409.404869328
 10
1205.2640067237
 20
-1409.3228983305
 10
1198.0768692215
 20
-1408.9211935169
 10
1190.7913465491
 20
-1408.2001513215
 10
1183.4146286377
 20
-1407.1604833259
 10
1175.9539954175
 20
-1405.8032155568
 10
1168.4168096325
 20
-1404.1296874737
 10
1160.8105095753
 20
-1402.1415506467
 10
1153.1426017457
 20
-1399.8407671268
 10
1145.4206534428
 20
-1397.2296075097
 10
1137.6522852975
 20
-1394.3106486946
 10
1129.8451637511
 20
-1391.0867713414
 10
1122.0069934901
 20
-1387.5611570279
 10
1114.1455098423
 20
-1383.7372851097
 10
1106.2684711428
 20
-1379.6189292868
 10
1098.3836510778
 20
-1375.2101538792
 10
1090.4988310129
 20
-1370.5153098158
 10
1082.6217923134
 20
-1365.539030341
 10
1074.7603086655
 20
-1360.2862264419
 10
1066.9221384045
 20
-1354.7620820016
 10
1059.1150168582
 20
-1348.9720486838
 10
1051.3466487128
 20
-1342.9218405524
 10
1043.62470041
 20
-1336.6174284323
 10
1035.9567925803
 20
-1330.0650340172
 10
1028.3504925231
 20
-1323.2711237293
 10
1020.8133067382
 20
-1316.2424023377
 10
1013.3526735179
 20
-1308.985806342
 10
1005.9759556066
 20
-1301.5084971261
 10
998.6904329342
 20
-1293.8178538917
 10
991.503295432
 20
-1285.9214663751
 10
984.421635937
 20
-1277.8271273574
 10
977.4524431921
 20
-1269.5428249739
 10
970.6025949492
 20
-1261.076734831
 10
963.8788511816
 20
-1252.4372119376
 10
957.2878474124
 20
-1243.6327824595
 10
950.8360881668
 20
-1234.6721353058
 10
944.5299405522
 20
-1225.5641135534
 10
938.3756279748
 20
-1216.3177057201
 10
932.3792239983
 20
-1206.9420368941
 10
926.5466463493
 20
-1197.4463597286
 10
920.8836510778
 20
-1187.8400453105
 10
915.3958268765
 20
-1178.1325739125
 10
910.0885895653
 20
-1168.3335256367
 10
904.9671767467
 20
-1158.4525709607
 10
900.0366426368
 20
-1148.4994611939
 10
895.3018530775
 20
-1138.484018854
 10
890.7674807345
 20
-1128.4161279734
 10
886.4380004858
 20
-1118.3057243448
 10
882.3176850057
 20
-1108.162785716
 10
878.4106005482
 20
-1097.9973219429
 10
874.7206029339
 20
-1087.8193651109
 10
871.2513337449
 20
-1077.6389596345
 10
868.0062167311
 20
-1067.466152345
 10
864.9884544312
 20
-1057.310982575
 10
862.2010250123
 20
-1047.1834722508
 10
859.6466793306
 20
-1037.0936160026
 10
857.327938217
 20
-1027.0513713003
 10
855.2470899889
 20
-1017.0666486269
 10
853.4061881924
 20
-1007.1493016983
 10
851.8070495753
 20
-997.3091177387
 10
850.4512522943
 20
-987.5558078214
 10
849.3401343577
 20
-977.8989972859
 10
848.4747923047
 20
-968.3482162383
 10
847.8560801235
 20
-958.9128901464
 10
847.4846084082
 20
-949.602330538
 10
847.3607437566
 20
-940.4257258112
  0
LWPOLYLINE
  5
115
330
1F
100
AcDbEntity
  8
0
  6
Continuous
 62
     7
370
    25
100
AcDbPolyline
 90
       23
 70
   128
 43
0.0
 10
1323.8295150572
 20
-1088.0072799658
 10
1320.2973570006
 20
-1083.9302007995
 10
1313.3281642557
 20
-1075.645898416
 10
1306.4783160129
 20
-1067.1798082732
 10
1299.7545722452
 20
-1058.5402853797
 10
1293.1635684761
 20
-1049.7358559016
 10
1286.7118092304
 20
-1040.7752087479
 10
1280.4056616158
 20
-1031.6671869955
 10
1274.2513490384
 20
-1022.4207791622
 10
1268.2549450619
 20
-1013.0451103362
 10
1262.4223674129
 20
-1003.5494331707
 10
1256.7593721414
 20
-993.9431187526
 10
1251.2715479401
 20
-984.2356473546
 10
1245.964310629
 20
-974.4365990788
 10
1240.8428978103
 20
-964.5556444028
 10
1235.9123637004
 20
-954.602534636
 10
1231.1775741411
 20
-944.5870922961
 10
1226.6432017981
 20
-934.5192014155
 10
1222.3137215494
 20
-924.4087977869
 10
1218.1934060693
 20
-914.2658591581
 10
1214.2863216118
 20
-904.100395385
 10
1210.5963239975
 20
-893.922438553
 10
1208.8135081621
 20
-888.7721247958
  0
LWPOLYLINE
  5
116
330
1F
100
AcDbEntity
  8
0
  6
Continuous
 62
     7
370
    25
100
AcDbPolyline
 90
       26
 70
   128
 43
0.0
 10
1215.6646422487
 20
-509.5888535752
 10
1215.8215112829
 20
-509.5006845052
 10
1222.1786379329
 20
-506.1348207559
 10
1228.7056382317
 20
-503.0775819623
 10
1235.3972841449
 20
-500.331416929
 10
1242.2482157595
 20
-497.8985252952
 10
1249.2529455768
 20
-495.7808557724
 10
1256.4058629079
 20
-493.9801045838
 10
1263.7012383678
 20
-492.4977141054
 10
1271.1332284648
 20
-491.334871711
 10
1278.6958802804
 20
-490.4925088206
 10
1286.3831362383
 20
-489.971300155
 10
1294.1888389559
 20
-489.771663195
 10
1302.1067361765
 20
-489.8937578468
 10
1310.130485777
 20
-490.3374863144
 10
1318.2536608484
 20
-491.1024931777
 10
1326.469754843
 20
-492.1881656769
 10
1334.7721867864
 20
-493.5936342039
 10
1343.154306549
 20
-495.3177729984
 10
1351.6094001721
 20
-497.3592010499
 10
1360.1306952461
 20
-499.7162832033
 10
1368.7113663349
 20
-502.3871314697
 10
1377.3445404432
 20
-505.3696065374
 10
1386.0233025214
 20
-508.6613194864
 10
1394.7407010046
 20
-512.2596337015
 10
1400.2359052903
 20
-514.6766515006
  0
ARC
  5
117
330
1F
100
AcDbEntity
  8
0
  6
Continuous
 62
     7
370
    25
100
AcDbCircle
 10
1231.4552355481
 20
-884.3027085491
 30
0.0
 40
406.369599643058
100
AcDbArc
 50
57.0188983912
 51
64.251807965
  0
LWPOLYLINE
  5
118
330
1F
100
AcDbEntity
  8
0
  6
Continuous
 62
     7
370
    25
100
AcDbPolyline
 90
       82
 70
   128
 43
0.0
 10
1457.4019773017
 20
-546.5185181388
 10
1465.028990902
 20
-551.6875126164
 10
1473.7780432782
 20
-557.886920192
 10
1482.4954417615
 20
-564.3535000283
 10
1491.1742038397
 20
-571.082072487
 10
1499.807377948
 20
-578.0672480773
 10
1508.3880490368
 20
-585.303431773
 10
1516.9093441108
 20
-592.7848274941
 10
1525.3644377338
 20
-600.5054427489
 10
1533.7465574964
 20
-608.4590934347
 10
1542.0489894399
 20
-616.6394087905
 10
1550.2650834345
 20
-625.0398365001
 10
1558.3882585058
 20
-633.6536479405
 10
1566.4120081064
 20
-642.4739435714
 10
1574.3299053269
 20
-651.4936584615
 10
1582.1356080446
 20
-660.7055679477
 10
1589.8228640025
 20
-670.1022934216
 10
1597.3855158181
 20
-679.6763082399
 10
1604.817505915
 20
-689.4199437529
 10
1612.112881375
 20
-699.3253954474
 10
1619.2657987061
 20
-709.3847291977
 10
1626.2705285233
 20
-719.5898876204
 10
1633.121460138
 20
-729.9326965291
 10
1639.8131060512
 20
-740.4048714811
 10
1646.34010635
 20
-750.9980244133
 10
1652.697233
 20
-761.703670361
 10
1658.8793940333
 20
-772.5132342543
 10
1664.8816376269
 20
-783.4180577863
 10
1670.6991560691
 20
-794.4094063486
 10
1676.3272896105
 20
-805.4784760276
 10
1681.7615301962
 20
-816.616400656
 10
1686.9975250769
 20
-827.8142589147
 10
1692.0310802953
 20
-839.0630814787
 10
1696.8581640453
 20
-850.3538582013
 10
1701.4749099014
 20
-861.677545331
 10
1705.8776199161
 20
-873.0250727557
 10
1710.0627675812
 20
-884.3873512675
 10
1714.0270006531
 20
-895.755279843
 10
1717.7671438375
 20
-907.1197529333
 10
1721.280201333
 20
-918.4716677572
 10
1724.5633592305
 20
-929.8019315926
 10
1727.6139877673
 20
-941.1014690594
 10
1730.4296434334
 20
-952.361229389
 10
1733.0080709286
 20
-963.5721936737
 10
1735.3472049693
 20
-974.7253820907
 10
1737.4451719424
 20
-985.8118610948
 10
1739.3002914062
 20
-996.8227505743
 10
1740.9110774364
 20
-1007.7492309633
 10
1742.2762398164
 20
-1018.5825503067
 10
1743.3946850704
 20
-1029.3140312699
 10
1744.2655173399
 20
-1039.9350780894
 10
1744.8880391005
 20
-1050.4371834579
 10
1745.2617517212
 20
-1060.8119353386
 10
1745.3863558635
 20
-1071.0510237028
 10
1745.2617517212
 20
-1081.1462471867
 10
1744.8880391005
 20
-1091.0895196598
 10
1744.2655173399
 20
-1100.8728767025
 10
1743.3946850704
 20
-1110.4884819851
 10
1742.2762398164
 20
-1119.9286335446
 10
1740.9110774364
 20
-1129.1857699541
 10
1739.3002914062
 20
-1138.252476379
 10
1737.4451719424
 20
-1147.1214905167
 10
1735.3472049693
 20
-1155.785708413
 10
1733.0080709286
 20
-1164.2381901528
 10
1730.4296434334
 20
-1172.4721654185
 10
1727.6139877673
 20
-1180.4810389131
 10
1724.5633592305
 20
-1188.258395643
 10
1721.280201333
 20
-1195.7980060563
 10
1717.7671438375
 20
-1203.0938310322
 10
1714.0270006531
 20
-1210.1400267189
 10
1710.0627675812
 20
-1216.9309492139
 10
1705.8776199161
 20
-1223.461159085
 10
1701.4749099014
 20
-1229.725425727
 10
1696.8581640453
 20
-1235.7187315516
 10
1692.0310802953
 20
-1241.436276006
 10
1686.9975250769
 20
-1246.8734794187
 10
1681.7615301962
 20
-1252.025986667
 10
1676.3272896105
 20
-1256.8896706661
 10
1670.6991560691
 20
-1261.4606356742
 10
1664.8816376269
 20
-1265.7352204135
 10
1658.8793940333
 20
-1269.7100010025
 10
1655.6200494989
 20
-1271.6968792268
  0
SPLINE
  5
119
330
1F
100
AcDbEntity
  8
0
  6
Continuous
 62
     7
370
    25
100
AcDbSpline
210
0.0
220
0.0
230
1.0
 70
     8
 71
     3
 72
    12
 73
     8
 74
     0
 42
0.00000001
 43
0.00000001
 40
0.0
 40
0.0
 40
0.0
 40
0.0
 40
0.2085068802046487
 40
0.4169990931462247
 40
0.625774444541731
 40
0.8343927361449619
 40
1.0
 40
1.0
 40
1.0
 40
1.0
 10
1450.883522268694
 20
-556.7699058150129
 30
0.0
 10
1450.091550868161
 20
-556.7014470823626
 30
0.0
 10
1448.507663777739
 20
-556.5645344327412
 30
0.0
 10
1446.344493947277
 20
-555.7625820722511
 30
0.0
 10
1444.680078859608
 20
-554.6258003694127
 30
0.0
 10
1443.662393067616
 20
-553.3284661444352
 30
0.0
 10
1443.61049989708
 20
-552.4550228556511
 30
0.0
 10
1443.587535441928
 20
-552.068495129048
 30
0.0
  0
SPLINE
  5
11A
330
1F
100
AcDbEntity
  8
0
  6
Continuous
 62
     7
370
    25
100
AcDbSpline
210
0.0
220
0.0
230
1.0
 70
     8
 71
     3
 72
    12
 73
     8
 74
     0
 42
0.00000001
 43
0.00000001
 40
0.0
 40
0.0
 40
0.0
 40
0.0
 40
0.1990253565007827
 40
0.4207810571430927
 40
0.6417686148236502
 40
0.8625800380147873
 40
1.0
 40
1.0
 40
1.0
 40
1.0
 10
1457.485128751939
 20
-552.777111941912
 30
0.0
 10
1457.438619637952
 20
-553.2164273927466
 30
0.0
 10
1457.340289683948
 20
-554.1452317575348
 30
0.0
 10
1456.236445565952
 20
-555.3725336287534
 30
0.0
 10
1454.52591983965
 20
-556.3004894111737
 30
0.0
 10
1452.624800115466
 20
-556.7469726046834
 30
0.0
 10
1451.366293750865
 20
-556.7635475534853
 30
0.0
 10
1450.883522268694
 20
-556.7699058150129
 30
0.0
  0
SPLINE
  5
11B
330
1F
100
AcDbEntity
  8
0
  6
Continuous
 62
     7
370
    25
100
AcDbSpline
210
0.0
220
0.0
230
1.0
 70
     8
 71
     3
 72
    13
 73
     9
 74
     0
 42
0.00000001
 43
0.00000001
 40
0.0
 40
0.0
 40
0.0
 40
0.0
 40
0.1908590905683797
 40
0.381704483920498
 40
0.5729059855895644
 40
0.7646465350113156
 40
0.9567143196525906
 40
1.0
 40
1.0
 40
1.0
 40
1.0
 10
1402.372358957893
 20
-527.4199718938847
 30
0.0
 10
1401.58497224002
 20
-527.4870567213923
 30
0.0
 10
1400.010255311962
 20
-527.6212215619895
 30
0.0
 10
1397.727727750274
 20
-527.291583401762
 30
0.0
 10
1395.808704087595
 20
-526.6104302933496
 30
0.0
 10
1394.538073335667
 20
-525.6157881418409
 30
0.0
 10
1393.957907136819
 20
-524.7371994792755
 30
0.0
 10
1394.073841048065
 20
-524.2328395102951
 30
0.0
 10
1394.095163352471
 20
-524.1400787582986
 30
0.0
  0
SPLINE
  5
11C
330
1F
100
AcDbEntity
  8
0
  6
Continuous
 62
     7
370
    25
100
AcDbSpline
210
0.0
220
0.0
230
1.0
 70
     8
 71
     3
 72
    12
 73
     8
 74
     0
 42
0.00000001
 43
0.00000001
 40
0.0
 40
0.0
 40
0.0
 40
0.0
 40
0.1133162564187307
 40
0.3585503727094954
 40
0.6032615845075613
 40
0.8476329443922171
 40
1.0
 40
1.0
 40
1.0
 40
1.0
 10
1407.926059112384
 20
-523.5677803550211
 30
0.0
 10
1407.947641617999
 20
-523.7605292523447
 30
0.0
 10
1408.015932044075
 20
-524.3704169344737
 30
0.0
 10
1407.280699370636
 20
-525.394033603749
 30
0.0
 10
1405.841958484054
 20
-526.4462119658424
 30
0.0
 10
1404.076526928955
 20
-527.1248707273708
 30
0.0
 10
1402.8452354264
 20
-527.3380865399508
 30
0.0
 10
1402.372358957893
 20
-527.4199718938847
 30
0.0
  0
LWPOLYLINE
  5
11D
330
1F
100
AcDbEntity
  8
0
  6
Continuous
 62
     7
370
    25
100
AcDbPolyline
 90
       29
 70
   128
 43
0.0
 10
1136.5674172619
 20
-728.5087692651
 10
1137.5447391882
 20
-729.2162485951
 10
1138.2248531057
 20
-730.0315353483
 10
1138.5736552628
 20
-730.9137476428
 10
1138.5736552628
 20
-731.8186476702
 10
1138.2248531057
 20
-732.7008599647
 10
1137.5447391882
 20
-733.516146718
 10
1136.5674172619
 20
-734.2236260479
 10
1135.3418943292
 20
-734.7878219867
 10
1133.9296232273
 20
-735.1804433941
 10
1132.4014211263
 20
-735.3818025934
 10
1130.8339184609
 20
-735.3818025934
 10
1129.3057163599
 20
-735.1804433941
 10
1127.893445258
 20
-734.7878219867
 10
1126.6679223253
 20
-734.2236260479
 10
1125.690600399
 20
-733.516146718
 10
1125.0104864814
 20
-732.7008599647
 10
1124.6616843243
 20
-731.8186476702
 10
1124.6616843243
 20
-730.9137476428
 10
1125.0104864814
 20
-730.0315353483
 10
1125.690600399
 20
-729.2162485951
 10
1126.6679223253
 20
-728.5087692651
 10
1127.893445258
 20
-727.9445733263
 10
1129.3057163599
 20
-727.5519519189
 10
1130.8339184609
 20
-727.3505927197
 10
1132.4014211263
 20
-727.3505927197
 10
1133.9296232273
 20
-727.5519519189
 10
1135.3418943292
 20
-727.9445733263
 10
1136.5674172619
 20
-728.5087692651
  0
LWPOLYLINE
  5
11E
330
1F
100
AcDbEntity
  8
0
  6
Continuous
 62
     7
370
    25
100
AcDbPolyline
 90
       24
 70
   128
 43
0.0
 10
1135.1532036995
 20
-729.325177377
 10
1135.9759721438
 20
-729.9515246268
 10
1136.4755052406
 20
-730.6827917036
 10
1136.6147549054
 20
-731.4647438735
 10
1136.3833936277
 20
-732.2393873213
 10
1135.7985804149
 20
-732.9492702862
 10
1134.9036881877
 20
-733.5417439963
 10
1133.7650870087
 20
-733.9728673869
 10
1132.4672217187
 20
-734.2106660082
 10
1131.1063490489
 20
-734.2375034245
 10
1129.7833986995
 20
-734.0513892273
 10
1128.596487846
 20
-733.6661266553
 10
1127.6336442365
 20
-733.1102888709
 10
1126.9662775769
 20
-732.4250998198
 10
1126.6438833993
 20
-731.6613768394
 10
1126.690372205
 20
-730.8757617694
 10
1127.102296132
 20
-730.1265200855
 10
1127.849104667
 20
-729.4692196159
 10
1128.8754104373
 20
-728.9526093295
 10
1130.1050970392
 20
-728.6150038479
 10
1131.4469642427
 20
-728.4814418252
 10
1132.8014918959
 20
-728.5618289456
 10
1134.0682208795
 20
-728.8502032642
 10
1135.1532036995
 20
-729.325177377
  0
SPLINE
  5
11F
330
1F
100
AcDbEntity
  8
0
  6
Continuous
 62
     7
370
    25
100
AcDbSpline
210
0.0
220
0.0
230
1.0
 70
     8
 71
     3
 72
    11
 73
     7
 74
     0
 42
0.00000001
 43
0.00000001
 40
0.0
 40
0.0
 40
0.0
 40
0.0
 40
0.096875520626545
 40
0.4183335358775459
 40
0.7400277024671921
 40
1.0
 40
1.0
 40
1.0
 40
1.0
 10
1129.017228235909
 20
-733.7778712023025
 30
0.0
 10
1129.151149053543
 20
-733.7183948755359
 30
0.0
 10
1129.729453756384
 20
-733.4615607246963
 30
0.0
 10
1131.033427045476
 20
-733.3333496624667
 30
0.0
 10
1132.631563335594
 20
-733.4006724501198
 30
0.0
 10
1133.547874263446
 20
-733.7158312954556
 30
0.0
 10
1133.957413873964
 20
-733.8566896295068
 30
0.0
  0
LWPOLYLINE
  5
120
330
1F
100
AcDbEntity
  8
0
  6
Continuous
 62
     7
370
    25
100
AcDbPolyline
 90
       29
 70
   128
 43
0.0
 10
1077.1704476422
 20
-705.6493421341
 10
1076.1931257159
 20
-704.9418628042
 10
1075.5130117984
 20
-704.1265760509
 10
1075.1642096413
 20
-703.2443637564
 10
1075.1642096413
 20
-702.339463729
 10
1075.5130117984
 20
-701.4572514345
 10
1076.1931257159
 20
-700.6419646813
 10
1077.1704476422
 20
-699.9344853514
 10
1078.3959705749
 20
-699.3702894126
 10
1079.8082416768
 20
-698.9776680051
 10
1081.3364437778
 20
-698.7763088059
 10
1082.9039464433
 20
-698.7763088059
 10
1084.4321485442
 20
-698.9776680051
 10
1085.8444196461
 20
-699.3702894126
 10
1087.0699425788
 20
-699.9344853514
 10
1088.0472645051
 20
-700.6419646813
 10
1088.7273784227
 20
-701.4572514345
 10
1089.0761805798
 20
-702.339463729
 10
1089.0761805798
 20
-703.2443637564
 10
1088.7273784227
 20
-704.1265760509
 10
1088.0472645051
 20
-704.9418628042
 10
1087.0699425788
 20
-705.6493421341
 10
1085.8444196461
 20
-706.2135380729
 10
1084.4321485442
 20
-706.6061594803
 10
1082.9039464433
 20
-706.8075186796
 10
1081.3364437778
 20
-706.8075186796
 10
1079.8082416768
 20
-706.6061594803
 10
1078.3959705749
 20
-706.2135380729
 10
1077.1704476422
 20
-705.6493421341
  0
LWPOLYLINE
  5
121
330
1F
100
AcDbEntity
  8
0
  6
Continuous
 62
     7
370
    25
100
AcDbPolyline
 90
       24
 70
   128
 43
0.0
 10
1078.5846612046
 20
-704.8329340223
 10
1077.7618927604
 20
-704.2065867725
 10
1077.2623596635
 20
-703.4753196957
 10
1077.1231099987
 20
-702.6933675258
 10
1077.3544712765
 20
-701.918724078
 10
1077.9392844893
 20
-701.208841113
 10
1078.8341767164
 20
-700.6163674029
 10
1079.9727778954
 20
-700.1852440124
 10
1081.2706431854
 20
-699.9474453911
 10
1082.6315158552
 20
-699.9206079748
 10
1083.9544662046
 20
-700.1067221719
 10
1085.1413770581
 20
-700.491984744
 10
1086.1042206676
 20
-701.0478225284
 10
1086.7715873272
 20
-701.7330115795
 10
1087.0939815048
 20
-702.4967345599
 10
1087.0474926991
 20
-703.2823496299
 10
1086.6355687722
 20
-704.0315913138
 10
1085.8887602372
 20
-704.6888917833
 10
1084.8624544668
 20
-705.2055020697
 10
1083.6327678649
 20
-705.5431075513
 10
1082.2909006615
 20
-705.676669574
 10
1080.9363730082
 20
-705.5962824536
 10
1079.6696440246
 20
-705.307908135
 10
1078.5846612046
 20
-704.8329340223
  0
LWPOLYLINE
  5
122
330
1F
100
AcDbEntity
  8
0
  6
Continuous
 62
     7
370
    25
100
AcDbPolyline
 90
       29
 70
   128
 43
0.0
 10
1445.5730806404
 20
-550.1235968319
 10
1444.5957587141
 20
-549.416117502
 10
1443.9156447966
 20
-548.6008307487
 10
1443.5668426395
 20
-547.7186184542
 10
1443.5668426395
 20
-546.8137184268
 10
1443.9156447966
 20
-545.9315061323
 10
1444.5957587141
 20
-545.1162193791
 10
1445.5730806404
 20
-544.4087400491
 10
1446.7986035731
 20
-543.8445441103
 10
1448.210874675
 20
-543.4519227029
 10
1449.739076776
 20
-543.2505635037
 10
1451.3065794414
 20
-543.2505635037
 10
1452.8347815424
 20
-543.4519227029
 10
1454.2470526443
 20
-543.8445441103
 10
1455.472575577
 20
-544.4087400491
 10
1456.4498975033
 20
-545.1162193791
 10
1457.1300114209
 20
-545.9315061323
 10
1457.478813578
 20
-546.8137184268
 10
1457.478813578
 20
-547.7186184542
 10
1457.1300114209
 20
-548.6008307487
 10
1456.4498975033
 20
-549.416117502
 10
1455.472575577
 20
-550.1235968319
 10
1454.2470526443
 20
-550.6877927707
 10
1452.8347815424
 20
-551.0804141781
 10
1451.3065794414
 20
-551.2817733773
 10
1449.739076776
 20
-551.2817733773
 10
1448.210874675
 20
-551.0804141781
 10
1446.7986035731
 20
-550.6877927707
 10
1445.5730806404
 20
-550.1235968319
  0
LWPOLYLINE
  5
123
330
1F
100
AcDbEntity
  8
0
  6
Continuous
 62
     7
370
    25
100
AcDbPolyline
 90
       24
 70
   128
 43
0.0
 10
1446.9872942028
 20
-549.3071887201
 10
1446.1645257586
 20
-548.6808414702
 10
1445.6649926617
 20
-547.9495743935
 10
1445.5257429969
 20
-547.1676222236
 10
1445.7571042746
 20
-546.3929787758
 10
1446.3419174874
 20
-545.6830958108
 10
1447.2368097146
 20
-545.0906221007
 10
1448.3754108936
 20
-544.6594987102
 10
1449.6732761836
 20
-544.4217000888
 10
1451.0341488534
 20
-544.3948626725
 10
1452.3570992028
 20
-544.5809768697
 10
1453.5440100563
 20
-544.9662394418
 10
1454.5068536658
 20
-545.5220772262
 10
1455.1742203254
 20
-546.2072662773
 10
1455.496614503
 20
-546.9709892576
 10
1455.4501256973
 20
-547.7566043277
 10
1455.0382017703
 20
-548.5058460115
 10
1454.2913932354
 20
-549.1631464811
 10
1453.265087465
 20
-549.6797567675
 10
1452.0354008631
 20
-550.0173622491
 10
1450.6935336597
 20
-550.1509242718
 10
1449.3390060064
 20
-550.0705371514
 10
1448.0722770228
 20
-549.7821628328
 10
1446.9872942028
 20
-549.3071887201
  0
SPLINE
  5
124
330
1F
100
AcDbEntity
  8
0
  6
Continuous
 62
     7
370
    25
100
AcDbSpline
210
0.0
220
0.0
230
1.0
 70
     8
 71
     3
 72
    11
 73
     7
 74
     0
 42
0.00000001
 43
0.00000001
 40
0.0
 40
0.0
 40
0.0
 40
0.0
 40
0.1013265998269117
 40
0.4284172328207403
 40
0.7560544484868909
 40
1.0
 40
1.0
 40
1.0
 40
1.0
 10
1447.893351844846
 20
-549.7038518355574
 30
0.0
 10
1448.030582182466
 20
-549.6446315143488
 30
0.0
 10
1448.610803384036
 20
-549.3942431051615
 30
0.0
 10
1449.917695185959
 20
-549.2778337831743
 30
0.0
 10
1451.482293211341
 20
-549.3512810047243
 30
0.0
 10
1452.369499437895
 20
-549.656567480734
 30
0.0
 10
1452.74814978334
 20
-549.7868605581953
 30
0.0
  0
LWPOLYLINE
  5
125
330
1F
100
AcDbEntity
  8
0
  6
Continuous
 62
     7
370
    25
100
AcDbPolyline
 90
       29
 70
   128
 43
0.0
 10
1405.975100894
 20
-515.8344561353
 10
1406.9524228203
 20
-516.5419354653
 10
1407.6325367378
 20
-517.3572222185
 10
1407.9813388949
 20
-518.239434513
 10
1407.9813388949
 20
-519.1443345404
 10
1407.6325367378
 20
-520.0265468349
 10
1406.9524228203
 20
-520.8418335882
 10
1405.975100894
 20
-521.5493129181
 10
1404.7495779613
 20
-522.1135088569
 10
1403.3373068593
 20
-522.5061302643
 10
1401.8091047584
 20
-522.7074894636
 10
1400.2416020929
 20
-522.7074894636
 10
1398.713399992
 20
-522.5061302643
 10
1397.3011288901
 20
-522.1135088569
 10
1396.0756059574
 20
-521.5493129181
 10
1395.0982840311
 20
-520.8418335882
 10
1394.4181701135
 20
-520.0265468349
 10
1394.0693679564
 20
-519.1443345404
 10
1394.0693679564
 20
-518.239434513
 10
1394.4181701135
 20
-517.3572222185
 10
1395.0982840311
 20
-516.5419354653
 10
1396.0756059574
 20
-515.8344561353
 10
1397.3011288901
 20
-515.2702601965
 10
1398.713399992
 20
-514.8776387891
 10
1400.2416020929
 20
-514.6762795899
 10
1401.8091047584
 20
-514.6762795899
 10
1403.3373068593
 20
-514.8776387891
 10
1404.7495779613
 20
-515.2702601965
 10
1405.975100894
 20
-515.8344561353
  0
LWPOLYLINE
  5
126
330
1F
100
AcDbEntity
  8
0
  6
Continuous
 62
     7
370
    25
100
AcDbPolyline
 90
       24
 70
   128
 43
0.0
 10
1404.5608873316
 20
-516.6508642472
 10
1405.3836557758
 20
-517.277211497
 10
1405.8831888727
 20
-518.0084785737
 10
1406.0224385375
 20
-518.7904307436
 10
1405.7910772597
 20
-519.5650741915
 10
1405.2062640469
 20
-520.2749571564
 10
1404.3113718198
 20
-520.8674308665
 10
1403.1727706408
 20
-521.298554257
 10
1401.8749053508
 20
-521.5363528784
 10
1400.514032681
 20
-521.5631902947
 10
1399.1910823316
 20
-521.3770760975
 10
1398.0041714781
 20
-520.9918135254
 10
1397.0413278686
 20
-520.435975741
 10
1396.373961209
 20
-519.7507866899
 10
1396.0515670314
 20
-518.9870637096
 10
1396.0980558371
 20
-518.2014486395
 10
1396.509979764
 20
-517.4522069557
 10
1397.256788299
 20
-516.7949064861
 10
1398.2830940694
 20
-516.2782961997
 10
1399.5127806713
 20
-515.9406907181
 10
1400.8546478747
 20
-515.8071286954
 10
1402.209175528
 20
-515.8875158158
 10
1403.4759045116
 20
-516.1758901344
 10
1404.5608873316
 20
-516.6508642472
  0
LWPOLYLINE
  5
127
330
1F
100
AcDbEntity
  8
0
  6
Continuous
 62
     1
370
    25
100
AcDbPolyline
 90
      114
 70
   128
 43
0.0
 10
1037.0002880659
 20
-611.5648827092
 10
1037.7606360562
 20
-611.1289572704
 10
1044.0816094078
 20
-607.7314039325
 10
1050.5719844995
 20
-604.6400747378
 10
1057.2266091504
 20
-601.8574236411
 10
1064.0402007959
 20
-599.3856595625
 10
1071.0073506799
 20
-597.2267446345
 10
1078.1225281492
 20
-595.3823926439
 10
1085.3800850434
 20
-593.8540676716
 10
1092.7742601788
 20
-592.6429829304
 10
1100.2991839216
 20
-591.7500998019
 10
1107.9488828471
 20
-591.1761270735
 10
1115.717284482
 20
-590.9215203753
 10
1123.5982221244
 20
-590.9864818189
 10
1131.5854397393
 20
-591.3709598366
 10
1139.6725969247
 20
-592.0746492228
 10
1147.8532739446
 20
-593.0969913755
 10
1156.1209768255
 20
-594.4371747406
 10
1164.4691425107
 20
-596.0941354556
 10
1172.891144071
 20
-598.0665581943
 10
1181.3802959647
 20
-600.3528772107
 10
1189.9298593451
 20
-602.9512775822
 10
1198.5330474095
 20
-605.8596966503
 10
1207.1830307872
 20
-609.0758256578
 10
1215.8729429603
 20
-612.5971115815
 10
1224.5958857148
 20
-616.4207591592
 10
1233.3449346162
 20
-620.5437331083
 10
1242.1131445068
 20
-624.9627605352
 10
1250.8935550183
 20
-629.6743335338
 10
1259.6791960973
 20
-634.6747119696
 10
1268.4630935385
 20
-639.9599264492
 10
1277.2382745205
 20
-645.5257814709
 10
1285.9977731413
 20
-651.3678587555
 10
1294.7346359478
 20
-657.4815207532
 10
1303.4419274557
 20
-663.8619143253
 10
1312.1127356549
 20
-670.5039745966
 10
1320.7401774964
 20
-677.402428976
 10
1329.3174043564
 20
-684.5518013421
 10
1337.8376074724
 20
-691.9464163899
 10
1346.2940233486
 20
-699.5804041363
 10
1354.6799391246
 20
-707.4477045799
 10
1362.9886979044
 20
-715.5420725109
 10
1371.2137040407
 20
-723.8570824696
 10
1379.3484283704
 20
-732.3861338461
 10
1387.3864133979
 20
-741.1224561208
 10
1395.3212784211
 20
-750.0591142383
 10
1403.1467245963
 20
-759.1890141132
 10
1410.8565399389
 20
-768.5049082608
 10
1418.4446042537
 20
-777.9994015511
 10
1425.9048939941
 20
-787.6649570785
 10
1433.2314870433
 20
-797.4939021451
 10
1440.4185674152
 20
-807.4784343513
 10
1447.4604298717
 20
-817.6106277896
 10
1454.3514844513
 20
-827.8824393362
 10
1461.0862609065
 20
-838.285715036
 10
1467.6594130465
 20
-848.8121965749
 10
1474.0657229806
 20
-859.453527836
 10
1480.300105261
 20
-870.2012615324
 10
1486.3576109187
 20
-881.046865913
 10
1492.233431393
 20
-891.9817315353
 10
1497.9229023484
 20
-902.9971780992
 10
1503.4215073768
 20
-914.0844613383
 10
1508.7248815831
 20
-925.2347799607
 10
1513.8288150503
 20
-936.439282636
 10
1518.7292561809
 20
-947.6890750212
 10
1523.4223149136
 20
-958.9752268219
 10
1527.9042658108
 20
-970.2887788806
 10
1532.1715510167
 20
-981.620750289
 10
1536.2207830807
 20
-992.9621455173
 10
1540.048747647
 20
-1004.3039615549
 10
1543.6524060062
 20
-1015.6371950571
 10
1547.0288975071
 20
-1026.952849492
 10
1550.1755418279
 20
-1038.2419422827
 10
1553.0898411038
 20
-1049.4955119369
 10
1555.7694819098
 20
-1060.7046251618
 10
1558.2123370971
 20
-1071.8603839545
 10
1560.4164674817
 20
-1082.953932666
 10
1562.3801233841
 20
-1093.9764650309
 10
1564.1017460174
 20
-1104.9192311578
 10
1565.5799687257
 20
-1115.7735444751
 10
1566.8136180683
 20
-1126.530788627
 10
1567.8017147513
 20
-1137.1824243128
 10
1568.5434744052
 20
-1147.7199960657
 10
1569.0383082073
 20
-1158.1351389652
 10
1569.2858233495
 20
-1168.4195852769
 10
1569.2858233495
 20
-1178.5651710159
 10
1569.0383082073
 20
-1188.5638424274
 10
1568.5434744052
 20
-1198.4076623799
 10
1567.8017147513
 20
-1208.0888166658
 10
1566.8136180683
 20
-1217.5996202047
 10
1565.5799687257
 20
-1226.9325231436
 10
1564.1017460174
 20
-1236.0801168505
 10
1562.3801233841
 20
-1245.0351397952
 10
1560.4164674817
 20
-1253.7904833137
 10
1558.2123370971
 20
-1262.3391972514
 10
1555.7694819098
 20
-1270.6744954801
 10
1553.0898411038
 20
-1278.7897612848
 10
1550.1755418279
 20
-1286.6785526164
 10
1547.0288975071
 20
-1294.3346072056
 10
1543.6524060062
 20
-1301.7518475337
 10
1540.048747647
 20
-1308.9243856573
 10
1536.2207830807
 20
-1315.846527882
 10
1532.1715510167
 20
-1322.5127792824
 10
1527.9042658108
 20
-1328.9178480643
 10
1523.4223149136
 20
-1335.0566497646
 10
1518.7292561809
 20
-1340.9243112884
 10
1513.8288150503
 20
-1346.5161747767
 10
1508.7248815831
 20
-1351.8278013041
 10
1503.4215073768
 20
-1356.8549744026
 10
1497.9229023484
 20
-1361.5937034087
 10
1492.233431393
 20
-1366.0402266311
 10
1486.3576109187
 20
-1370.1910143368
 10
1480.3001052609
 20
-1374.0427715533
 10
1477.9647000046
 20
-1375.419834518
  0
LWPOLYLINE
  5
128
330
1F
100
AcDbEntity
  8
0
  6
Continuous
 62
     1
370
    25
100
AcDbPolyline
 90
      114
 70
   128
 43
0.0
 10
1054.6782658282
 20
-601.359603372
 10
1055.4383055859
 20
-600.9238558726
 10
1061.7592789375
 20
-597.5263025347
 10
1068.2496540291
 20
-594.43497334
 10
1074.9042786801
 20
-591.6523222433
 10
1081.7178703255
 20
-589.1805581647
 10
1088.6850202095
 20
-587.0216432367
 10
1095.8001976788
 20
-585.1772912461
 10
1103.0577545731
 20
-583.6489662738
 10
1110.4519297085
 20
-582.4378815326
 10
1117.9768534512
 20
-581.5449984042
 10
1125.6265523768
 20
-580.9710256757
 10
1133.3949540116
 20
-580.7164189775
 10
1141.275891654
 20
-580.7813804211
 10
1149.2631092689
 20
-581.1658584389
 10
1157.3502664543
 20
-581.869547825
 10
1165.5309434743
 20
-582.8918899777
 10
1173.7986463551
 20
-584.2320733428
 10
1182.1468120403
 20
-585.8890340579
 10
1190.5688136006
 20
-587.8614567965
 10
1199.0579654944
 20
-590.1477758129
 10
1207.6075288747
 20
-592.7461761845
 10
1216.2107169392
 20
-595.6545952525
 10
1224.8607003169
 20
-598.87072426
 10
1233.55061249
 20
-602.3920101838
 10
1242.2735552444
 20
-606.2156577615
 10
1251.0226041459
 20
-610.3386317105
 10
1259.7908140365
 20
-614.7576591374
 10
1268.571224548
 20
-619.469232136
 10
1277.356865627
 20
-624.4696105718
 10
1286.1407630682
 20
-629.7548250514
 10
1294.9159440501
 20
-635.3206800731
 10
1303.6754426709
 20
-641.1627573577
 10
1312.4123054774
 20
-647.2764193554
 10
1321.1195969854
 20
-653.6568129275
 10
1329.7904051846
 20
-660.2988731988
 10
1338.4178470261
 20
-667.1973275782
 10
1346.995073886
 20
-674.3466999443
 10
1355.515277002
 20
-681.7413149921
 10
1363.9716928782
 20
-689.3753027385
 10
1372.3576086543
 20
-697.2426031821
 10
1380.6663674341
 20
-705.3369711131
 10
1388.8913735704
 20
-713.6519810718
 10
1397.0260979001
 20
-722.1810324483
 10
1405.0640829276
 20
-730.917354723
 10
1412.9989479507
 20
-739.8540128405
 10
1420.824394126
 20
-748.9839127154
 10
1428.5342094685
 20
-758.2998068631
 10
1436.1222737834
 20
-767.7943001533
 10
1443.5825635238
 20
-777.4598556807
 10
1450.9091565729
 20
-787.2888007473
 10
1458.0962369449
 20
-797.2733329535
 10
1465.1380994014
 20
-807.4055263918
 10
1472.0291539809
 20
-817.6773379385
 10
1478.7639304362
 20
-828.0806136382
 10
1485.3370825761
 20
-838.6070951771
 10
1491.7433925103
 20
-849.2484264382
 10
1497.9777747906
 20
-859.9961601346
 10
1504.0352804483
 20
-870.8417645153
 10
1509.9111009227
 20
-881.7766301375
 10
1515.6005718781
 20
-892.7920767014
 10
1521.0991769064
 20
-903.8793599405
 10
1526.4025511128
 20
-915.0296785629
 10
1531.50648458
 20
-926.2341812382
 10
1536.4069257106
 20
-937.4839736234
 10
1541.0999844432
 20
-948.7701254241
 10
1545.5819353405
 20
-960.0836774828
 10
1549.8492205463
 20
-971.4156488912
 10
1553.8984526103
 20
-982.7570441195
 10
1557.7264171767
 20
-994.0988601571
 10
1561.3300755359
 20
-1005.4320936593
 10
1564.7065670368
 20
-1016.7477480942
 10
1567.8532113576
 20
-1028.0368408849
 10
1570.7675106335
 20
-1039.2904105392
 10
1573.4471514395
 20
-1050.499523764
 10
1575.8900066267
 20
-1061.6552825567
 10
1578.0941370114
 20
-1072.7488312683
 10
1580.0577929137
 20
-1083.7713636331
 10
1581.7794155471
 20
-1094.71412976
 10
1583.2576382554
 20
-1105.5684430773
 10
1584.491287598
 20
-1116.3256872292
 10
1585.479384281
 20
-1126.977322915
 10
1586.2211439348
 20
-1137.5148946679
 10
1586.715977737
 20
-1147.9300375674
 10
1586.9634928791
 20
-1158.2144838791
 10
1586.9634928791
 20
-1168.3600696182
 10
1586.715977737
 20
-1178.3587410297
 10
1586.2211439348
 20
-1188.2025609821
 10
1585.479384281
 20
-1197.883715268
 10
1584.491287598
 20
-1207.3945188069
 10
1583.2576382554
 20
-1216.7274217458
 10
1581.7794155471
 20
-1225.8750154527
 10
1580.0577929137
 20
-1234.8300383974
 10
1578.0941370114
 20
-1243.5853819159
 10
1575.8900066267
 20
-1252.1340958536
 10
1573.4471514395
 20
-1260.4693940823
 10
1570.7675106335
 20
-1268.584659887
 10
1567.8532113576
 20
-1276.4734512186
 10
1564.7065670368
 20
-1284.1295058078
 10
1561.3300755359
 20
-1291.5467461359
 10
1557.7264171767
 20
-1298.7192842595
 10
1553.8984526103
 20
-1305.6414264842
 10
1549.8492205463
 20
-1312.3076778847
 10
1545.5819353405
 20
-1318.7127466665
 10
1541.0999844432
 20
-1324.8515483668
 10
1536.4069257106
 20
-1330.7192098906
 10
1531.50648458
 20
-1336.3110733789
 10
1526.4025511128
 20
-1341.6226999063
 10
1521.0991769064
 20
-1346.6498730048
 10
1515.6005718781
 20
-1351.388602011
 10
1509.9111009227
 20
-1355.8351252333
 10
1504.0352804483
 20
-1359.985912939
 10
1497.9777747906
 20
-1363.8376701555
 10
1495.6424269207
 20
-1365.2146999918
  0
ENDSEC
  0
SECTION
  2
OBJECTS
  0
DICTIONARY
  5
C
330
0
100
AcDbDictionary
281
     1
  3
ACAD_GROUP
350
D
  3
ACAD_LAYOUT
350
1A
  3
ACAD_MLINESTYLE
350
17
  3
ACAD_PLOTSETTINGS
350
19
  3
ACAD_PLOTSTYLENAME
350
E
  3
ACAD_SCALELIST
350
47
  3
DWGPROPS
350
129
  0
DICTIONARY
  5
D
102
{ACAD_REACTORS
330
C
102
}
330
C
100
AcDbDictionary
281
     1
  0
DICTIONARY
  5
1A
102
{ACAD_REACTORS
330
C
102
}
330
C
100
AcDbDictionary
281
     1
  3
Layout1
350
1E
  3
Layout2
350
26
  3
Model
350
22
  0
DICTIONARY
  5
17
102
{ACAD_REACTORS
330
C
102
}
330
C
100
AcDbDictionary
281
     1
  3
Standard
350
18
  0
DICTIONARY
  5
19
102
{ACAD_REACTORS
330
C
102
}
330
C
100
AcDbDictionary
281
     1
  0
ACDBDICTIONARYWDFLT
  5
E
102
{ACAD_REACTORS
330
C
102
}
330
C
100
AcDbDictionary
281
     1
  3
Normal
350
F
100
AcDbDictionaryWithDefault
340
F
  0
DICTIONARY
  5
47
102
{ACAD_REACTORS
330
C
102
}
330
C
100
AcDbDictionary
281
     1
  3
A0
350
48
  3
A1
350
49
  3
A2
350
4A
  3
A3
350
4B
  3
A4
350
4C
  3
A5
350
4D
  3
A6
350
4E
  3
A7
350
4F
  3
A8
350
50
  3
A9
350
51
  3
B0
350
52
  3
B1
350
53
  3
B2
350
54
  3
B3
350
55
  3
B4
350
56
  3
B5
350
57
  3
B6
350
58
  3
B7
350
59
  3
B8
350
5A
  3
B9
350
5B
  3
C0
350
5C
  3
C1
350
5D
  3
C2
350
5E
  3
C3
350
5F
  3
C4
350
60
  3
C5
350
61
  3
C6
350
62
  3
C7
350
63
  3
C8
350
64
  3
C9
350
65
  3
D0
350
66
  3
D1
350
67
  3
D2
350
68
  0
XRECORD
  5
129
102
{ACAD_REACTORS
330
C
102
}
330
C
100
AcDbXrecord
280
     1
  1
DWGPROPS COOKIE
  2

  3

  4

  6

  7

  8
b.kav
  9

300
=
301
=
302
=
303
=
304
=
305
=
306
=
307
=
308
=
309
=
 40
0.0
 41
2459935.585511736
 42
2459935.585511921
  1

 90
        0
  0
LAYOUT
  5
1E
102
{ACAD_REACTORS
330
1A
102
}
330
1A
100
AcDbPlotSettings
  1

  2
none_device
  4

  6

 40
0.0
 41
0.0
 42
0.0
 43
0.0
 44
0.0
 45
0.0
 46
0.0
 47
0.0
 48
0.0
 49
0.0
140
0.0
141
0.0
142
1.0
143
1.0
 70
   688
 72
     1
 73
     0
 74
     5
  7

 75
    16
147
1.0
148
0.0
149
0.0
100
AcDbLayout
  1
Layout1
 70
     1
 71
     1
 10
0.0
 20
0.0
 11
420.0
 21
297.0
 12
0.0
 22
0.0
 32
0.0
 14
1.0000000000E+20
 24
1.0000000000E+20
 34
1.0000000000E+20
 15
-1.0000000000E+20
 25
-1.0000000000E+20
 35
-1.0000000000E+20
146
0.0
 13
0.0
 23
0.0
 33
0.0
 16
1.0
 26
0.0
 36
0.0
 17
0.0
 27
1.0
 37
0.0
 76
     0
330
1B
  0
LAYOUT
  5
26
102
{ACAD_REACTORS
330
1A
102
}
330
1A
100
AcDbPlotSettings
  1

  2
none_device
  4

  6

 40
0.0
 41
0.0
 42
0.0
 43
0.0
 44
0.0
 45
0.0
 46
0.0
 47
0.0
 48
0.0
 49
0.0
140
0.0
141
0.0
142
1.0
143
1.0
 70
   688
 72
     1
 73
     0
 74
     5
  7

 75
    16
147
1.0
148
0.0
149
0.0
100
AcDbLayout
  1
Layout2
 70
     1
 71
     2
 10
0.0
 20
0.0
 11
0.0
 21
0.0
 12
0.0
 22
0.0
 32
0.0
 14
0.0
 24
0.0
 34
0.0
 15
0.0
 25
0.0
 35
0.0
146
0.0
 13
0.0
 23
0.0
 33
0.0
 16
1.0
 26
0.0
 36
0.0
 17
0.0
 27
1.0
 37
0.0
 76
     0
330
23
  0
LAYOUT
  5
22
102
{ACAD_REACTORS
330
1A
102
}
330
1A
100
AcDbPlotSettings
  1

  2
none_device
  4
Letter_(8.50_x_11.00_Inches)
  6

 40
6.35
 41
6.35
 42
6.35000508
 43
6.35000508
 44
215.9
 45
279.4
 46
0.0
 47
0.0
 48
0.0
 49
0.0
140
0.0
141
0.0
142
1.0
143
1.0
 70
  1712
 72
     1
 73
     0
 74
     0
  7

 75
     0
147
1.0
148
0.0
149
0.0
100
AcDbLayout
  1
Model
 70
     1
 71
     0
 10
0.0
 20
0.0
 11
279.4
 21
215.9
 12
0.0
 22
0.0
 32
0.0
 14
0.0
 24
0.0
 34
0.0
 15
279.4
 25
215.9
 35
0.0
146
0.0
 13
0.0
 23
0.0
 33
0.0
 16
1.0
 26
0.0
 36
0.0
 17
0.0
 27
1.0
 37
0.0
 76
     0
330
1F
331
29
  0
MLINESTYLE
  5
18
102
{ACAD_REACTORS
330
17
102
}
330
17
100
AcDbMlineStyle
  2
Standard
 70
     0
  3

 62
   256
 51
90.0
 52
90.0
 71
     2
 49
0.5
 62
   256
  6
BYLAYER
 49
-0.5
 62
   256
  6
BYLAYER
  0
ACDBPLACEHOLDER
  5
F
102
{ACAD_REACTORS
330
E
102
}
330
E
  0
SCALE
  5
48
102
{ACAD_REACTORS
330
47
102
}
330
47
100
AcDbScale
 70
     0
300
1:1
140
1.0
141
1.0
290
     1
  0
SCALE
  5
49
102
{ACAD_REACTORS
330
47
102
}
330
47
100
AcDbScale
 70
     0
300
1:2
140
1.0
141
2.0
290
     0
  0
SCALE
  5
4A
102
{ACAD_REACTORS
330
47
102
}
330
47
100
AcDbScale
 70
     0
300
1:4
140
1.0
141
4.0
290
     0
  0
SCALE
  5
4B
102
{ACAD_REACTORS
330
47
102
}
330
47
100
AcDbScale
 70
     0
300
1:5
140
1.0
141
5.0
290
     0
  0
SCALE
  5
4C
102
{ACAD_REACTORS
330
47
102
}
330
47
100
AcDbScale
 70
     0
300
1:8
140
1.0
141
8.0
290
     0
  0
SCALE
  5
4D
102
{ACAD_REACTORS
330
47
102
}
330
47
100
AcDbScale
 70
     0
300
1:10
140
1.0
141
10.0
290
     0
  0
SCALE
  5
4E
102
{ACAD_REACTORS
330
47
102
}
330
47
100
AcDbScale
 70
     0
300
1:16
140
1.0
141
16.0
290
     0
  0
SCALE
  5
4F
102
{ACAD_REACTORS
330
47
102
}
330
47
100
AcDbScale
 70
     0
300
1:20
140
1.0
141
20.0
290
     0
  0
SCALE
  5
50
102
{ACAD_REACTORS
330
47
102
}
330
47
100
AcDbScale
 70
     0
300
1:30
140
1.0
141
30.0
290
     0
  0
SCALE
  5
51
102
{ACAD_REACTORS
330
47
102
}
330
47
100
AcDbScale
 70
     0
300
1:40
140
1.0
141
40.0
290
     0
  0
SCALE
  5
52
102
{ACAD_REACTORS
330
47
102
}
330
47
100
AcDbScale
 70
     0
300
1:50
140
1.0
141
50.0
290
     0
  0
SCALE
  5
53
102
{ACAD_REACTORS
330
47
102
}
330
47
100
AcDbScale
 70
     0
300
1:100
140
1.0
141
100.0
290
     0
  0
SCALE
  5
54
102
{ACAD_REACTORS
330
47
102
}
330
47
100
AcDbScale
 70
     0
300
2:1
140
2.0
141
1.0
290
     0
  0
SCALE
  5
55
102
{ACAD_REACTORS
330
47
102
}
330
47
100
AcDbScale
 70
     0
300
4:1
140
4.0
141
1.0
290
     0
  0
SCALE
  5
56
102
{ACAD_REACTORS
330
47
102
}
330
47
100
AcDbScale
 70
     0
300
8:1
140
8.0
141
1.0
290
     0
  0
SCALE
  5
57
102
{ACAD_REACTORS
330
47
102
}
330
47
100
AcDbScale
 70
     0
300
10:1
140
10.0
141
1.0
290
     0
  0
SCALE
  5
58
102
{ACAD_REACTORS
330
47
102
}
330
47
100
AcDbScale
 70
     0
300
100:1
140
100.0
141
1.0
290
     0
  0
SCALE
  5
59
102
{ACAD_REACTORS
330
47
102
}
330
47
100
AcDbScale
 70
     0
300
1/128" = 1'-0"
140
0.0078125
141
12.0
290
     0
  0
SCALE
  5
5A
102
{ACAD_REACTORS
330
47
102
}
330
47
100
AcDbScale
 70
     0
300
1/64" = 1'-0"
140
0.015625
141
12.0
290
     0
  0
SCALE
  5
5B
102
{ACAD_REACTORS
330
47
102
}
330
47
100
AcDbScale
 70
     0
300
1/32" = 1'-0"
140
0.03125
141
12.0
290
     0
  0
SCALE
  5
5C
102
{ACAD_REACTORS
330
47
102
}
330
47
100
AcDbScale
 70
     0
300
1/16" = 1'-0"
140
0.0625
141
12.0
290
     0
  0
SCALE
  5
5D
102
{ACAD_REACTORS
330
47
102
}
330
47
100
AcDbScale
 70
     0
300
3/32" = 1'-0"
140
0.09375
141
12.0
290
     0
  0
SCALE
  5
5E
102
{ACAD_REACTORS
330
47
102
}
330
47
100
AcDbScale
 70
     0
300
1/8" = 1'-0"
140
0.125
141
12.0
290
     0
  0
SCALE
  5
5F
102
{ACAD_REACTORS
330
47
102
}
330
47
100
AcDbScale
 70
     0
300
3/16" = 1'-0"
140
0.1875
141
12.0
290
     0
  0
SCALE
  5
60
102
{ACAD_REACTORS
330
47
102
}
330
47
100
AcDbScale
 70
     0
300
1/4" = 1'-0"
140
0.25
141
12.0
290
     0
  0
SCALE
  5
61
102
{ACAD_REACTORS
330
47
102
}
330
47
100
AcDbScale
 70
     0
300
3/8" = 1'-0"
140
0.375
141
12.0
290
     0
  0
SCALE
  5
62
102
{ACAD_REACTORS
330
47
102
}
330
47
100
AcDbScale
 70
     0
300
1/2" = 1'-0"
140
0.5
141
12.0
290
     0
  0
SCALE
  5
63
102
{ACAD_REACTORS
330
47
102
}
330
47
100
AcDbScale
 70
     0
300
3/4" = 1'-0"
140
0.75
141
12.0
290
     0
  0
SCALE
  5
64
102
{ACAD_REACTORS
330
47
102
}
330
47
100
AcDbScale
 70
     0
300
1" = 1'-0"
140
1.0
141
12.0
290
     0
  0
SCALE
  5
65
102
{ACAD_REACTORS
330
47
102
}
330
47
100
AcDbScale
 70
     0
300
1-1/2" = 1'-0"
140
1.5
141
12.0
290
     0
  0
SCALE
  5
66
102
{ACAD_REACTORS
330
47
102
}
330
47
100
AcDbScale
 70
     0
300
3" = 1'-0"
140
3.0
141
12.0
290
     0
  0
SCALE
  5
67
102
{ACAD_REACTORS
330
47
102
}
330
47
100
AcDbScale
 70
     0
300
6" = 1'-0"
140
6.0
141
12.0
290
     0
  0
SCALE
  5
68
102
{ACAD_REACTORS
330
47
102
}
330
47
100
AcDbScale
 70
     0
300
1'-0" = 1'-0"
140
12.0
141
12.0
290
     0
  0
ENDSEC
  0
EOF
